Вступление:
|--------------------------------------------------|----------------------------------|
|--------------------------------------------------|----------------------------------|
|--------------------------------------------------|----------------------------------|
|--10-10-10-10-10-10-10-10-10-10-10-10-10-10-10-10-|--9-9-9-9-9-9-9-9-9-9-9-9-9-9-9-9-|
|-8--8--8--8--8--8--8--8---------------------------|-7-7-7-7-7-7-7-7-8-8-8-8-8-8-8-8--|
|-------------------------7--7--7--7--7--7--7--7---|----------------------------------|

Во время второго исполнения этого риффа Гитара 2:

|-13-(x16)-12-(x14)-13-(x2)-15-(x4)----------------------------------|
|-15-------13-------15------17------15-(x4)-12-(x4)-15-(x4)-13-(x16)-|
|-----------------------------------16------13------16------14-------|
|--------------------------------------------------------------------|
|--------------------------------------------------------------------|
|--------------------------------------------------------------------|

Куплет:
              P.M|--------------------------------|
|-------------------------------------------------|
|-------------------------------------------------|
|-----5-------4-----------------------------------|
|-3---5---2---4---7-7-7-7-7-7-7-7-7-7-7-7-7-7-7-7-|
|-3---3---2---2---7-7-7-7-7-7-7-7-7-7-7-7-7-7-7-7-|
|-3-------2-------7-7-7-7-7-7-7-7-7-7-7-7-7-7-7-7-|

So I felt like the biggest asshole (Felt like the biggest asshole)

              P.M|--------------------------------|
|-------------------------------------------------|
|-------------------------------------------------|
|-----5-------4-----------------------------------|
|-3---5---2---4---7-7-7-7-7-7-7-7-7-7-7-7-7-7-7-7-|
|-3---3---2---2---7-7-7-7-7-7-7-7-7-7-7-7-7-7-7-7-|
|-3-------2-------7-7-7-7-7-7-7-7-7-7-7-7-7-7-7-7-|

when I killed your rock and roll (Moved down the sexy people)

Припев:
-------------------------------------------|
-------------------------------------------|
-------------------------------------------|
-3-3-3-3-3-3-3-3-(x2)-7-7-7-7-7-7-7-7-(x2)-|
-3-3-3-3-3-3-3-3------7-7-7-7-7-7-7-7------|
-3-3-3-3-3-3-3-3------7-7-7-7-7-7-7-7------|

Every time I look in your eyes, every day I'm watching you die 

-------------------------------------------|
-------------------------------------------|
-------------------------------------------|
-2-2-2-2-2-2-2-2-(x2)-3-3-3-3-3-3-3-3-(x2)-|
-2-2-2-2-2-2-2-2------3-3-3-3-3-3-3-3------|
-2-2-2-2-2-2-2-2------3-3-3-3-3-3-3-3------|

All the faults I see in you die, and why? 

Куплет: аналогично, текст тот же.
Припев: аналогично, текст тот же.

Затем:
|-----------------------------|               
|-----------------------------|                
|-----------------------------|                 
|-3-----/8--7-----2-----3-----| Два раза         
|-3-----/8--7-----2-----3-----|                   
|-3-----/8--7-----2-----3-----|                                                                      
                                                   
------------------------------------------|   \
------------------------------------------|    \
--------5--------------------3------------|     \
-----7----7--------------5-----5----------|      \ 
---7---7----7---(x2)---5---5-----5---(x2)-|       \ 
-7------------7------5-------------5------|        | 
                                                   | 
Eat all the grass                                  | Всего четыре раза:
Eat all the grass that you want                    | два на чистом звуке,
                                                   | два -- на перегрузе.
------------------------------------------|        |
------------------------------------------|        |
--------5--------------------3------------|        |
-----7----7--------------5-----5----------|       /
---7---7----7---(x2)---5---5-----5---(x2)-|      /
-7------------7------5-------------5------|     /
                                               /
Accidents happen In the dark                  / 

Припев: рифф из припева, текст тот же.

|-----------------------------|               
|-----------------------------|                
|-----------------------------|                 
|-3-----/8--7-----2-----3-----| Два раза         
|-3-----/8--7-----2-----3-----|                   
|-3-----/8--7-----2-----3-----|            


Последний куплет:
-------------------------------|-------------------------------|
-------------------------------|-------------------------------|
-----5-------4-------5-------4-|-----5-------4-------5-------4-|
-3---5---2---4---3---5---2---4-|-3---5---2---4---3---5---2---4-|
-3---3---2---2---3---3---2---2-|-3---3---2---2---3---3---2---2-|
-3-------2-------3-------2-----|-3-------2-------3-------2-----|

So I felt like the biggest asshole, When I killed rock n roll 

-----------------------------------------------------------------|
-----------------------------------------------------------------|
-----------------------------------------------------------------|
-----------------------------------------------------------------|
-----------------3-3-3-3-3-3-3-3-----------------2-2-2-2-2-2-2-2-|
-3-3-3-3-3-3-3-3-----------------2-2-2-2-2-2-2-2-----------------| 

When I felt like the biggest asshole 

-----------------------------------------------------------------|---|
-----------------------------------------------------------------|---|
-----------------------------------------------------------------|---|
-----------------------------------------------------------------|-7-|
-----------------3-3-3-3-3-3-3-3-----------------2-2-2-2-2-2-2-2-|-7-|
-3-3-3-3-3-3-3-3-----------------2-2-2-2-2-2-2-2-----------------|-7-|

When I killed rock n roll


Текст, аккорды и табулатура для песни "Kill Rock'N'Roll", исполняет "System Of A Down".
Используемые в песне аккорды можно найти в разделе Как брать аккорды. Аккорды для шестиструнной гитары. Другие песни можно найти на нашем сайте, воспользовавшись алфавитным указателем вверху страницы.


 
Ошибка в тексте? Выделите ошибку и нажмите Ctrl+Enter