Вступление:

||----------------------------------|----------------------------------||
||o-1---1---3---3---3---3---3---3---|-4---4---3---3---1---1---0---0---o||
||----0---0---0---0---0---0---0---0-|---0---0---0---0---0---0---0---0--||
||----------------------------------|----------------------------------||
||o---------------------------------|---------------------------------o||
||----------------------------------|----------------------------------||

||------------------------------------|------------------------------------------||
||o-8---8---7---7---10---10---8---8---|-12---12---10---10---13---13---12---12---o||
||----0---0---0---0----0----0---0---0-|----0----0----0----0----0----0----0----0--||
||------------------------------------|------------------------------------------||
||o-----------------------------------|-----------------------------------------o||
||------------------------------------|------------------------------------------||

|-----------------------------------------|---------------------------------------|
|-15---15---13---13---12---12---10---10---|-13---13---12---12---10---10---8---8---|
|----0----0----0----0----0----0----0----0-|----0----0----0----0----0----0---0---0-|
|-----------------------------------------|---------------------------------------|
|-----------------------------------------|---------------------------------------|
|-----------------------------------------|---------------------------------------|

|-------------------------------------|
|-11---11---10---10---8---8---7---7---|
|----0----0----0----0---0---0---0---0-|
|-------------------------------------|
|-------------------------------------|
|-------------------------------------|


Куплет:
                                                                      4x
||----------------------------------|----------------------------------||
||o---------------------------------|---------------------------------o||
||--------------------------7-8-8---|-------------------------7-8-8----||
||--5-------5-----5-5---5---7-8-8---|-5-------5-----5-5---5---7-8-8----||
||o-5-------5-----5-5---5---5-6-6---|-5-------5-----5-5---5---5-6-6---o||
||--5-------5-----5-5---5-----------|-5-------5-----5-5---5------------||

Why don't you ask the kids at Tiananmen square? 
Was Fashion the reason why they were there? 

They disguise it, Hypnotize it 
Television made you buy it 

|-----------------------------------------|---------------------------------------|
|-15---15---13---13---12---12---10---10---|-13---13---12---12---10---10---8---8---|
|----0----0----0----0----0----0----0----0-|----0----0----0----0----0----0---0---0-|
|-----------------------------------------|---------------------------------------|
|-----------------------------------------|---------------------------------------|
|-----------------------------------------|---------------------------------------|

I'm just sitting in my car...

|-------------------------------------|
|-11---11---10---10---8---8---7---7---|
|----0----0----0----0---0---0---0---0-|
|-------------------------------------|
|-------------------------------------|
|-------------------------------------|

...and waiting for my...

Куплет 2:
                                                                       4x
||----------------------------------|----------------------------------||
||o---------------------------------|---------------------------------o||
||--------------------------7-8-8---|-------------------------7-8-8----||
||--5-------5-----5-5---5---7-8-8---|-5-------5-----5-5---5---7-8-8----||
||o-5-------5-----5-5---5---5-6-6---|-5-------5-----5-5---5---5-6-6---o||
||--5-------5-----5-5---5-----------|-5-------5-----5-5---5------------||

She's scared that I will take her away from there 
Dreams that her country left with no one there 

Mezmerize the simple minded 
Propaganda leaves us blinded 

|-----------------------------------------|---------------------------------------|
|-15---15---13---13---12---12---10---10---|-13---13---12---12---10---10---8---8---|
|----0----0----0----0----0----0----0----0-|----0----0----0----0----0----0---0---0-|
|-----------------------------------------|---------------------------------------|
|-----------------------------------------|---------------------------------------|
|-----------------------------------------|---------------------------------------|

I'm just sitting in my car...

|-------------------------------------|
|-11---11---10---10---8---8---7---7---|
|----0----0----0----0---0---0---0---0-|
|-------------------------------------|
|-------------------------------------|
|-------------------------------------|

...and waiting for my...

|---------------------------------|---------------------------------|
|---------------------------------|---------------------------------|
|-------------------------7-8-8---|-------------------------7-8-8---|
|-5-------5-----5-5---5---7-8-8---|-5-------5-----5-5---5---7-8-8---|
|-5-------5-----5-5---5---5-6-6---|-5-------5-----5-5---5---5-6-6---|
|-5-------5-----5-5---5-----------|-5-------5-----5-5---5-----------|

...Girl!....

Припев:

|---------------------------------|---------------------------------------|
|---------------------------------|---------------------------------------|
|-----------------8---8---8---8---|-8---8---8---8---10-10-10-10-10---10---|
|-5---5---5---5---8---8---8---8---|-8---8---8---8---10-10-10-10-10---10---|
|-5---5---5---5---6---6---6---6---|-6---6---6---6----8--8--8--8--8----8---|
|-5---5---5---5-------------------|---------------------------------------|

...I'm just sitting in my car...

|---------------------------------|
|---------------------------------|
|-----------------7-------7-------|
|-8-------8-------7-------7-------|
|-8-------8-------5-------5-------|
|-8-------8-------0-------0-------|

...waiting for my girl...

Соло:


Схема соло:

            1   2   3   4   5   6   7   8   9   10
Гитара 1    |-*-|-*-|-*-|-*-|-*-|-*-|-*-|-*-|-*-|-*-|
Гитара 2    |-*-|-*-|-*-|-*-|-*-|-*-|-*-|-*-|-*-|-*-|
Гитара 3    |---|---|-*-|-*-|-*-|-*-|---|---|---|---|
Гитара Соло |---|---|-*-|-*-|-*-|-*-|-*-|-*-|-*-|-*-|



Гитара 1, с октавером, -1 октава:

||----------------------------------------------------------------------||  (играет до конца соло,
||o--------------------------------------------------------------------o||   после 2х повторений вступают
||----------------------------------------------------------------------||   Гитара Соло и Гитара 3, с самого начала
||----------------------------------------------------------------------||   Гитара 1 поддерживается
||o-5-----0-0---3---5-----0-0---3---5-----0-0---3---5-------0--0---3---o||   Гитарой 2)
||--5-----0-0---3---5-----0-0---3---5-----0-0---3---5-------0--0---3----||

Гитара 2

||------------------------------------------------------19-19-19--------||  (играет с начала до конца соло)
||o-----------------------------------------------------20-20-20-------o||
||------------------------------------------------------19-19-19--------||
||----------------------------------------------------------------------||
||o--------------------------------------------------------------------o||
||----------------------------------------------------------------------||

Гитара 3

||----------------------------------|----------------------------------||
||o-1---1---3---3---3---3---3---3---|-4---4---3---3---1---1---0---0---o||
||----0---0---0---0---0---0---0---0-|---0---0---0---0---0---0---0---0--||
||----------------------------------|----------------------------------||
||o---------------------------------|---------------------------------o||
||----------------------------------|----------------------------------||


||------------------------------------|------------------------------------------||
||o-8---8---7---7---10---10---8---8---|-12---12---10---10---13---13---12---12---o||
||----0---0---0---0----0----0---0---0-|----0----0----0----0----0----0----0----0--||
||------------------------------------|------------------------------------------||
||o-----------------------------------|-----------------------------------------o||
||------------------------------------|------------------------------------------||

Гитара Соло:

||-----------------------------------------|
||o-------------------12-------------12-13-|
||--12-------------14----------------------|
||-----------------------------------------|
||o----------------------------------------|
||-----------------------------------------|


               |--3--|                      |--3--|
|--------------------------------------------------------------||
|-15-13-12-13-12h13p12----12----------12-13-12h13p12----12----o||
|----------------------14----14-12-14----------------14----14--||
|--------------------------------------------------------------||
|-------------------------------------------------------------o||
|--------------------------------------------------------------||


||------------------------------------|------------------------------------------||
||o-8---8---7---7---10---10---8---8---|-12---12---10---10---13---13---12---12---o||
||----0---0---0---0----0----0---0---0-|----0----0----0----0----0----0----0----0--||
||------------------------------------|------------------------------------------||
||o-----------------------------------|-----------------------------------------o||
||------------------------------------|------------------------------------------||

Припев:

|---------------------------------|---------------------------------------|
|---------------------------------|---------------------------------------|
|-----------------8---8---8---8---|-8---8---8---8---10-10-10-10-10---10---|
|-5---5---5---5---8---8---8---8---|-8---8---8---8---10-10-10-10-10---10---|
|-5---5---5---5---6---6---6---6---|-6---6---6---6----8--8--8--8--8----8---|
|-5---5---5---5-------------------|---------------------------------------|

...I'm just sitting in my car...

|---------------------------------|
|---------------------------------|
|-----------------7-------7-------|
|-8-------8-------7-------7-------|
|-8-------8-------5-------5-------|
|-8-------8-------0-------0-------|

...waiting for my...

||----------------------------------------------------------------------|| 
||o--------------------------------------------------------------------o||  
||----------------------------------------------------------------------|| 
||----------------------------------------------------------------------|| 
||o-5-----0-0---3---5-----0-0---3---5-----0-0---3---5-------0--0---3---o|| 
||--5-----0-0---3---5-----0-0---3---5-----0-0---3---5-------0--0---3----||

...girl...

|---------------------------------|-------------------------------------|
|---------------------------------|-------------------------------------|
|-----------------8-8-8-8---------|-8-8-8-8---------10-10-10-10---------|
|-5-5-5-5---------8-8-8-8---------|-8-8-8-8---------10-10-10-10---------|
|-5-5-5-5---------6-6-6-6---------|-6-6-6-6----------8--8--8--8---------|
|-5-5-5-5-------------------------|-------------------------------------|

...I'm just sitting in my car...

|---------------------------------|-----------------------------------|
|---------------------------------|-----------------------------------|
|-----------------7---------------|-(7)-------------------------------|
|-8---------------7---------------|-(7)-------------------------------|
|-8---------------5---------------|-(5)-------------------------------|
|-8---------------0---------------|-(0)-------------------------------|

...and waiting for my....

Outro:

|---------------------------------|---------------------------------|---------|
|-1---1---3---3---3---3---3---3---|-4---4---3---3---1---1---1h3p1---|-0-------|
|---0---0---0---0---0---0---0---0-|---0---0---0---0---0---0---------|-0-------|
|---------------------------------|---------------------------------|---------|
|---------------------------------|---------------------------------|---------|
|---------------------------------|---------------------------------|---------|

.... girl....


Текст, аккорды и табулатура для песни "Hypnotize", исполняет "System Of A Down".
Используемые в песне аккорды можно найти в разделе Как брать аккорды. Аккорды для шестиструнной гитары. Другие песни можно найти на нашем сайте, воспользовавшись алфавитным указателем вверху страницы.


 
Ошибка в тексте? Выделите ошибку и нажмите Ctrl+Enter