(Pink Floyd) после Aerials

D------------------|
A------------------|
F||*-----------0-------------0-------------|
C||*-----4----------4-----4--|-----4----------4-----4--|
G||---5-----5----------5-----|--5-----5----------5-----|
C------------------|


                                                        
------------------------------------------||
------------------------------------------||
--------0-----------0-----|--------0-----------0-----*||
-----4-----4-----4-----4--|-----4-----4-----4-----4--*||
--2-----------2-----------|--2-----------2------------||
------------------------------------------||


                                                                               
------------------------------------------------------|
------------------------------------------------------|
--------0-----------0-----0-------------0-------------|
-----4-----4-----4-----4--|-----4----------4-----4--|-----4----------4-----4--|
--2-----------2-----------|--5-----5----------5-----|--5-----5----------5-----|
------------------------------------------------------|


                                                      
-----------------------------------------|
-----------------------------------------|
--------0-----------0-----|--------0-----------0-----|
-----4-----4-----4-----4--|-----4-----4-----4-----4--|
--2-----------2-----------|--2-----------2-----------|
-----------------------------------------|


                                                                                
-------------------------------------------------------|
-------------------------------------------------------|
-----5--------5--------4--|--------4--------4--5----|-----5--------5--------4--|
--------0--------0--------|--0--------0-------------|--------0--------0--------|
--5--------5--------5-----|-----5--------5----------|--5--------5--------5-----|
-------------------------------------------------------|


                                                                              
-----------------------------------------------------|
-----------------------------------------------------|
--------4--------4--5----0-------------0-------------|
--0--------0-------------|-----4----------4-----4--|-----4----------4-----4--|
-----5--------5----------|--5-----5----------5-----|--5-----5----------5-----|
-----------------------------------------------------|


                                                                                
-------------------------------------------|
-------------------------------------------|
|*-----------0-------------0-------------0-------------|
|*-----4----------4-----4--|-----4----------4-----4--|-----4----------4-----4--|
|---5-----5----------5-----|--5-----5----------5-----|--5-----5----------5-----|
-------------------------------------------|


                                                                                
-------------------------------------------------------|
-------------------------------------------------------|
-----------0-------------|--------0-----------0-----|--------0-----------0-----|
-----4----------4-----4--|-----4-----4-----4-----4--|-----4-----4-----4-----4--|
--5-----5----------5-----|--2-----------2-----------|--2-----------2-----------|
-------------------------------------------------------|


                                                                             
------------------------------------------|--------||
------------------------------------------|--------||
--------0-----------0-----|--------0-----------0-----*|--------||
-----4-----4-----4-----4--|-----4-----4-----4-----4--*||--0----------------||
--2-----------2-----------|--2-----------2------------||--0----------------||
------------------------------------------||--0----------------||


Текст, аккорды и табулатура для песни "Good Bye Blue Sky", исполняет "System Of A Down".
Используемые в песне аккорды можно найти в разделе Как брать аккорды. Аккорды для шестиструнной гитары. Другие песни можно найти на нашем сайте, воспользовавшись алфавитным указателем вверху страницы.


 
Ошибка в тексте? Выделите ошибку и нажмите Ctrl+Enter