D------------------|
A------------------|
F|-2--------|--2--------2---------2--------|
C||--5----5----0--------|--0--------0--------|--5----5----0--------|
G||--3----3----------------------|--3----3-------------|
C------------------|


                                                                
---------------------------------------|
---------------------------------------|
--2--------2---------2--------|--2--------2--------|
--0--------0--------|--5----5----0--------|--0--------0--------|
--------------------|--3----3----------------------|
---------------------------------------|


                                                                 
----------------------------------------|
----------------------------------------|
------------2--------|--2--------2---------2--------|
--5----5----0--------|--0--------0--------|--5----5----0--------|
--3----3----------------------|--3----3-------------|
----------------------------------------|


                                                                
---------------------------------------|
---------------------------------------|
--2--------2---------2--------|--2--------2--------|
--0--------0--------|--5----5----0--------|--0--------0--------|
--------------------|--3----3----------------------|
---------------------------------------|


                                                                        
-----------------------------------------------|
-----------------------------------------------|
--2--------2-----------------|--2--------2--------2--------|
--0--------0--------|--5--------5--------|--0--------0--------0--------|
--------------------|--3--------3--------------------------|
-----------------------------------------------|


                                                                 
----------------------------------------|
----------------------------------------|
------------2--------|--2--------2---------2--------|
--5----5----0--------|--0--------0--------|--5----5----0--------|
--3----3----------------------|--3----3-------------|
----------------------------------------|


                                                               
--------------------------------------|
--------------------------------------|
--2--------2--------|--2--------2--------|--2--------2--------|
--0--------0--------|--0--------0--------|--0--------0--------|
--------------------------------------|
--------------------------------------|


                                                                        
-----------------------------------------------|
-----------------------------------------------|
--------------------|--2--------2--------2--------|--2--------2--------|
--5--------5--------|--0--------0--------0--------|--0--------0--------|
--3--------3-----------------------------------|
-----------------------------------------------|


                                                                        
-----------------------------------------------|
-----------------------------------------------|
--------------------|--2--------2--------2--------|--2--------2--------|
--5--------5--------|--0--------0--------0--------|--0--------0--------|
--3--------3-----------------------------------|
-----------------------------------------------|


                                          
----------------------------||
----------------------------||
--------------------|--2----------------||
--5--------5--------|--0----------------||
--3--------3----------------||
----------------------------||


Текст, аккорды и табулатура для песни "Drugs", исполняет "System Of A Down".
Используемые в песне аккорды можно найти в разделе Как брать аккорды. Аккорды для шестиструнной гитары. Другие песни можно найти на нашем сайте, воспользовавшись алфавитным указателем вверху страницы.


 
Ошибка в тексте? Выделите ошибку и нажмите Ctrl+Enter