Вступление:
|-------------------------------------|
|-------------------------------------|
|-------------------------------------| X 11
|-14-0-0-0-13-0-0-0-12-0-0-0-11-0-0-0-|
|-------------------------------------|
|-------------------------------------|

For today we will take the body parts and put them on the wall (после 4 Интро)

|---------------------------------|
|---------------------------------|
|---------------------------------|
|---------------------------------|
|---------------------------------|
|-8-8-8-8-/12--8-8-8-8-/12--------|


Куплет:
|--------------------------------------|
|--------------------------------------|
|--------------------------------------|
|-14-0-0-0-13-0-0-0-12-0-0-0-11-0-0-0--| X 7
|-14-0-0-0-13-0-0-0-12-0-0-0-11-0-0-0--|
|-14-0-0-0-13-0-0-0-12-0-0-0-11-0-0-0--|

For treated indigenously, digenously 
Human right is private blue chip, pry 

(We're the prophetic generation of bottled water, bottled water \ Второй голос,
Causing poor populations to die, to die, to die)                / вместе с первым

|---------------------------------|
|---------------------------------|
|---------------------------------|
|---------------------------------|
|---------------------------------|
|-8-8-8-8-/12--8-8-8-8-/12--------|


|---------------------|
|---------------------|
|---------------------|
|-14-0-13-0-12-0-11-0-| X 7 Palmed
|-14-0-13-0-12-0-11-0-|
|-14-0-13-0-12-0-11-0-|


For treated indigenously, digenously 
Human right is private blue chip, pry 

(We're the prophetic generation of bottled water, bottled water \ Второй голос,
Causing poor populations to die, to die, to die)                / вместе с первым


|---------------------------------|
|---------------------------------|
|---------------------------------|
|---------------------------------|
|---------------------------------|
|-8-8-8-8-/12---/12-/12-/12-------|

Припев:
|---------------------------------|
|---------------------------------|
|-----------------8----8----------|
|-0----0--5----5--8----8--4--5-7--|
|-0----0--5----5--6----6--4--5-7--|
|-0----0--5----5----------4--5-7--|

You, you went beyond 
And you lost it all 
Why did you go there? 

|-----------------------------------|
|-----------------------------------|
|-----------------8----8------------|
|-0----0--5----5--8----8--9--10-12--|
|-0----0--5----5--6----6--9--10-12--|
|-0----0--5----5----------9--10-12--|

From beyond 
You saw it all 
Why did you go there? 

Куплет: аналогично, текст тот же.
Припев: аналогично, текст тот же.

Переход:
|-----------------------------------------|
|-----------------------------------------|
|-----------------------------------------|
|-5--7-7-7-7-7-7-5---1--3-3-3-3-3-3-1-----|
|-5--5-5-5-5-5-5-5---1--1-1-1-1-1-1-1-----|
|-5--5-5-5-5-5-5-5---1--1-1-1-1-1-1-1-----|

-----------------------------------------|
-----------------------------------------|
-----------------------------------------|
-3--5-5-5-5-5-5-3---7--7--7-7-7--7-7-7-7-|
-3--3-3-3-3-3-3-3------------------------|
-3--3-3-3-3-3-3-3---5--5--5-5-5--5-5-5-5-|

Далее:

Гитара 1:                                             Гитара 2:

|-----------------------------------------|           |-----------------------|-------------------------|
|-----------------------------------------|           |----------13-15-16-18--|--16-16-16p-15-13--------|
|-----------------------------------------|           |-12-14-15-14-15-17-19--|--17-17-17p-15-14-15-14--|
|-5--7-7-7-7-7-7-5---1--3-3-3-3-3-3-1-----|           |-----------------------|------------------17-15--|
|-5--5-5-5-5-5-5-5---1--1-1-1-1-1-1-1-----|           |-----------------------|-------------------------|
|-5--5-5-5-5-5-5-5---1--1-1-1-1-1-1-1-----|           |-----------------------|-------------------------|

She lost her mind

-----------------------------------------|            |--------------------------|
-----------------------------------------|            |--------------------------|
-----------------------------------------|            |--19-19-19-19-19-19-19-19-|
-3--5-5-5-5-5-5-3---7--7--7-7-7--7-7-7-7-|            |--------------------------|
-3--3-3-3-3-3-3-3---5--5--5-5-5--5-5-5-5-|            |--17-17-17-17-17-17-17-17-|
-3--3-3-3-3-3-3-3---5--5--5-5-5--5-5-5-5-|            |--------------------------|

Someone kicked her into the back of the line

|-----------------------------------------|           |-----------------------|-------------------------|
|-----------------------------------------|           |----------13-15-16-18--|--16-16-16p-15-13--------|
|-----------------------------------------|           |-12-14-15-14-15-17-19--|--17-17-17p-15-14-15-14--|
|-5--7-7-7-7-7-7-5---1--3-3-3-3-3-3-1-----|           |-----------------------|------------------17-15--|
|-5--5-5-5-5-5-5-5---1--1-1-1-1-1-1-1-----|           |-----------------------|-------------------------|
|-5--5-5-5-5-5-5-5---1--1-1-1-1-1-1-1-----|           |-----------------------|-------------------------|

she lost her head

-----------------------------------------|            |--------------------------|
-----------------------------------------|            |--------------------------|
-----------------------------------------|            |--19-19-19-19-19-19-19-19-|
-3--5-5-5-5-5-5-3---7--7--7-7-7--7-7-7-7-|            |--------------------------|
-3--3-3-3-3-3-3-3---5--5--5-5-5--5-5-5-5-|            |--17-17-17-17-17-17-17-17-|
-3--3-3-3-3-3-3-3---5--5--5-5-5--5-5-5-5-|            |--------------------------|

When they called and said that they thought he was dead 

|-----------------------------------------|           |-17-17-17-17-17-17-17-17--15-15-15-15-15-15-15-15-|
|-----------------------------------------|           |-15-15-15-15-15-15-15-15--15-15-15-15-15-15-15-15-|
|-----------------------------------------|           |--------------------------------------------------|
|-5--7-7-7-7-7-7-5---1--3-3-3-3-3-3-1-----|           |--------------------------------------------------|
|-5--5-5-5-5-5-5-5---1--1-1-1-1-1-1-1-----|           |--------------------------------------------------|
|-5--5-5-5-5-5-5-5---1--1-1-1-1-1-1-1-----|           |--------------------------------------------------|

Dreaming of screaming 

-----------------------------------------|            |-17-17-17-17-17-17-17-17--15-15-15-15-15-15-15-15-|
-----------------------------------------|            |-15-15-15-15-15-15-15-15--15-15-15-15-15-15-15-15-|            
-----------------------------------------|            |--------------------------------------------------|
-3--5-5-5-5-5-5-3---7--7--7-7-7--7-7-7-7-|            |--------------------------------------------------|
-3--3-3-3-3-3-3-3---5--5--5-5-5--5-5-5-5-|            |--------------------------------------------------|
-3--3-3-3-3-3-3-3---5--5--5-5-5--5-5-5-5-|            |--------------------------------------------------|

Someone kick me out of my mind 

                                                      |-15-15-15-15-15-15-15-15--14-14-14-14-14-14-14-14-|
                                                      |-15-15-15-15-15-15-15-15--15-15-15-15-15-15-15-15-|
                                                      |--------------------------------------------------|
                                                      |--------------------------------------------------|
                                                      |--------------------------------------------------|
                                                      |--------------------------------------------------|

I hate these thoughts I can't deny 

|-----------------------------------------|           |-17-17-17-17-17-17-17-17--15-15-15-15-15-15-15-15-|
|-----------------------------------------|           |-15-15-15-15-15-15-15-15--15-15-15-15-15-15-15-15-|
|-----------------------------------------|           |--------------------------------------------------|
|-5--7-7-7-7-7-7-5---1--3-3-3-3-3-3-1-----|           |--------------------------------------------------|
|-5--5-5-5-5-5-5-5---1--1-1-1-1-1-1-1-----|           |--------------------------------------------------|
|-5--5-5-5-5-5-5-5---1--1-1-1-1-1-1-1-----|           |--------------------------------------------------|

Dreaming of screaming 

-----------------------------------------|            |-17-17-17-17-17-17-17-17--15-15-15-15-15-15-15-15-|
-----------------------------------------|            |-15-15-15-15-15-15-15-15--15-15-15-15-15-15-15-15-|            
-----------------------------------------|            |--------------------------------------------------|
-3--5-5-5-5-5-5-3---7--7--7-7-7--7-7-7-7-|            |--------------------------------------------------|
-3--3-3-3-3-3-3-3---5--5--5-5-5--5-5-5-5-|            |--------------------------------------------------|
-3--3-3-3-3-3-3-3---5--5--5-5-5--5-5-5-5-|            |--------------------------------------------------|

Someone kick me out of my mind 

                                                      |-15-15-15-15-15-15-15-15--14-|
                                                      |-15-15-15-15-15-15-15-15--15-|
                                                      |-----------------------------|
                                                      |-----------------------------|
                                                      |-----------------------------|
                                                      |-----------------------------|

I hate these thoughts I can't deny 

Куплет: рифф из куплета, текст тот же.
Припев: рифф из припева, текст тот же.

Последний куплет:
|------------------------------------------------------------------|
|------------------------------------------------------------------|
|------------------------------------------------------------------|
|------------------------------------------------------------------|
|------------------------------------------------------------------|
|-0-0-0-0-0-0-0-0-0-0-0-0-0-0-0-0--5-5-5-5-5-5-5-5-5-5-5-5-5-5-5-5-|

Na-na-na-na-na-na....

|-----------------------------------------------------------|-------------------------|
|-----------------------------------------------------------|-------------------------|
|-----------------------------------------------------------|-------------------------|
|----------------------------------11-11-11-11-11-11--12-12-|-14-14-14-14-14-14-14-14-|
|-6-6-6-6-6-6-6-6-6-6-6-6-6-6-6-6---9--9--9--9--9--9--10-10-|-12-12-12-12-12-12-12-12-|
|-----------------------------------------------------------|-------------------------|

Na-na-na...

|------------------------------------------------------------------|
|------------------------------------------------------------------|
|------------------------------------------------------------------|
|------------------------------------------------------------------|
|-0-0-0-0-0-0-0-0-0-0-0-0-0-0-0-0--5-5-5-5-5-5-5-5-5-5-5-5-5-5-5-5-|

Dreaming of screaming 

|-----------------------------------------------------------|-------------------------|
|-----------------------------------------------------------|-------------------------|
|-----------------------------------------------------------|-------------------------|
|----------------------------------11-11-11-11-11-11--12-12-|-14-14-14-14-14-14-14-14-|
|-6-6-6-6-6-6-6-6-6-6-6-6-6-6-6-6---9--9--9--9--9--9--10-10-|-12-12-12-12-12-12-12-12-|
|-----------------------------------------------------------|-------------------------|

Someone kick me out of my mind, I hate these thoughts I can't deny 

|------------------------------------------------------------------|
|------------------------------------------------------------------|
|------------------------------------------------------------------|
|------------------------------------------------------------------|
|-0-0-0-0-0-0-0-0-0-0-0-0-0-0-0-0--5-5-5-5-5-5-5-5-5-5-5-5-5-5-5-5-|

Dreaming of screaming 

|-----------------------------------------------------------|-------------------------|
|-----------------------------------------------------------|-------------------------|
|-----------------------------------------------------------|-------------------------|
|----------------------------------11-11-11-11-11-11--12-12-|-14-14-14-14-14-14-14-14-|
|-6-6-6-6-6-6-6-6-6-6-6-6-6-6-6-6---9--9--9--9--9--9--10-10-|-12-12-12-12-12-12-12-12-|
|-----------------------------------------------------------|-------------------------|

Someone kick me out of my mind, I hate these thoughts I can't deny 

Outro:

|---------------------|
|---------------------|
|---------------------|
|-14-0-13-0-12-0-11-0-|
|-14-0-13-0-12-0-11-0-|
|-14-0-13-0-12-0-11-0-|

You will take the body parts and put them on the wall 
And bring the (something) 

|---------------------------------|
|---------------------------------|
|---------------------------------|
|---------------------------0-----|
|---------------------------0-----|
|-8-8-8-8-/12---/12-/12-/12-0-----|


Текст, аккорды и табулатура для песни "Dreaming", исполняет "System Of A Down".
Используемые в песне аккорды можно найти в разделе Как брать аккорды. Аккорды для шестиструнной гитары. Другие песни можно найти на нашем сайте, воспользовавшись алфавитным указателем вверху страницы.


 
Ошибка в тексте? Выделите ошибку и нажмите Ctrl+Enter