system of a down, chop suey .
 Tabbed by tim lindberg, bizkitsk8er1216.
  
Chop Suey 
Toxicity 
Written by Daron Malankian
and System of a down
tabbed by Tim Lindberg
CGCFAD TUNING
this is a great song
(down a step and drop D)
This tab is pretty much 100%

intro clean 
struming
(suppose to be done on 12 string)

D------------------------------------------------------------|
|A|------------------------------------------------------------|
|F|---555555555555777777777777444444444444222222222222------|
|C|---777777777777999999999999555555555555333333333333------|
G---000000000000-000000000000-000000000000-000000000000------|
|C|------------------------------------------------------------|

intro
distorted
D------------------------------------------------------------|
|A|------------------------------------------------------------|
|F|---5-5-5--7-7-7--4-4-4--2-2-2-------------------------------|
|C|----7-7-7--9-9-9--5-5-5--3-3-3------------------------------|
G------------------------------------------------------------|
|C|------------------------------------------------------------|
 p.m. ______ ______ ______ ______

intro
D---55555555-77777777-44444444-99999999----------------------|
|A|------------------------------------------------------------|
|F|------------------------------------------------------------|
|C|------------------------------------------------------------|
G------------------------------------------------------------|
|C|------------------------------------------------------------|

main riff
full distortion 2x's
D------------------------------------------------------------|
|A|------------------------------------------------------------|
|F|------------------------------------------------------------|
|C|-------55555555-44444444-77777777-99889988------------------|
G-------55555555-44444444-77777777-99889988------------------|
|C|-------55555555-44444444-77777777-99889988------------------|

main riff part 2
full distortion 2x's
D------------------------------------------------------------|
|A|------------------------------------------------------------|
|F|------------------------------------------------------------|
|C|------------------------------------------------------------|
G-------55555555-44444444-77777777-1010101010101010----------|
|C|-------55555555-44444444-77777777-1010101010101010----------|

verse1
D------------------------------------------------------------|
|A|------------------------------------------------------------|
|F|------------------------------------------------------------|
|C|--66-6666666655-5555555566-6666666655-5555555566------------|
G--66-6666666655-5555555566-6666666655-5555555566------------|
|C|--66-6666666655-5555555566-6666666655-5555555566------------|

verse1 part 2
D------------------------------------------------------------|
|A|------------------------------------------------------------|
|F|--5-5-------5-7-7-------7-4-4-------5-2-2-------2-----------|
|C|------7---7-------9---9-------5---5-------3---3-------------|
G--------7-----------9-----------5-----------3---------------|
|C|------------------------------------------------------------|

verse1 part 2 part 2
D---55555555-777777777-44444444-99999999---------------------|
|A|------------------------------------------------------------|
|F|------------------------------------------------------------|
|C|------------------------------------------------------------|
G------------------------------------------------------------|
|C|------------------------------------------------------------|

main riff again 
full distortion 2x's
D------------------------------------------------------------|
|A|------------------------------------------------------------|
|F|------------------------------------------------------------|
|C|-------55555555-44444444-77777777-99889988------------------|
G-------55555555-44444444-77777777-99889988------------------|
|C|-------55555555-44444444-77777777-99889988------------------|

main riff part 2 again
full distortion 2x's
D------------------------------------------------------------|
|A|------------------------------------------------------------|
|F|------------------------------------------------------------|
|C|------------------------------------------------------------|
G-------55555555-44444444-77777777-1010101010101010----------|
|C|-------55555555-44444444-77777777-1010101010101010----------|

verse2
D------------------------------------------------------------|
|A|------------------------------------------------------------|
|F|------------------------------------------------------------|
|C|--66-6666666655-5555555566-6666666655-5555555566------------|
G--66-6666666655-5555555566-6666666655-5555555566------------|
|C|--66-6666666655-5555555566-6666666655-5555555566------------|

verse2 part 2
D------------------------------------------------------------|
|A|------------------------------------------------------------|
|F|--5-5-------5-7-7-------7-4-4-------5-2-2-------2-----------|
|C|------7---7-------9---9-------5---5-------3---3-------------|
G--------7-----------9-----------5-----------3---------------|
|C|------------------------------------------------------------|

verse2 part 2 part 2
D---55555555-777777777-44444444-99999999---------------------|
|A|------------------------------------------------------------|
|F|------------------------------------------------------------|
|C|------------------------------------------------------------|
G------------------------------------------------------------|
|C|------------------------------------------------------------|

breakdown
play really fast
D------------------------------------------------------------|
|A|------------------------------------------------------------|
|F|------------------------------------------------------------|
|C|-------55555555-44444444-77777777-99889988------------------|
G-------55555555-44444444-77777777-99889988------------------|
|C|-------55555555-44444444-77777777-99889988------------------|

second part of a breakdown
(father, father, father, father)
D------------------------------------------------------------|
|A|------------------------------------------------------------|
|F|------------------------------------------------------------|
|C|-------55555555-44444444-77777777-99889988------------------|
G-------55555555-44444444-77777777-99889988------------------|
|C|-------55555555-44444444-77777777-99889988------------------|
p.m.      ________ ________ ________ ________

last part of breakdown
(i commend my spirit)
D------------------------------------------------------------|
|A|------------------------------------------------------------|
|F|------------------------------------------------------------|
|C|------------------------------------------------------------|
G-------55555555-44444444-77777777-1010101010101010----------|
|C|-------55555555-44444444-77777777-1010101010101010----------|

ending 
(forsaken me)
D------------------------------------------------------------|
|A|------------------------------------------------------------|
|F|------------------------------------------------------------|
|C|--5------1------8------1------5------1------8------1--------|
G--5------1------8------1------5------1------8------1--------|
|C|--5------1------8------1------5------1------8------1--------|

endding verse
D------------------------------------------------------------|
|A|------------------------------------------------------------|
|F|------------------------------------------------------------|
|C|---------5555-1111-8888-1111-5555-1111-8888-1111------------|
G---------5555-1111-8888-1111-5555-1111-8888-1111------------|
|C|---------5555-1111-8888-1111-5555-1111-8888-1111------------|

last verse  outro
D------------------------------------------------------------|
|A|------------------------------------------------------------|
|F|------------------------------------------------------------|
|C|---------5555-1111-8888-1111-5555-1111-8888-1-1-1-1-1--0----|
G---------5555-1111-8888-1111-5555-1111-8888-1-1-1-1-1--0-~--|
|C|---------5555-1111-8888-1111-5555-1111-8888-1-1-1-1-1--0----|
 
:: Ultimate Guitar Archive :: 
http://www.ultimate-guitar.com 





Текст, аккорды и табулатура для песни "Chop Suey", исполняет "System Of A Down".
Используемые в песне аккорды можно найти в разделе Как брать аккорды. Аккорды для шестиструнной гитары. Другие песни можно найти на нашем сайте, воспользовавшись алфавитным указателем вверху страницы.


 
Ошибка в тексте? Выделите ошибку и нажмите Ctrl+Enter