Symphony X - The Relic

drop d

G||-------------------|------------------|--------------------|
D||--0----------------|------------------|------0------0------|
A||-------------------|------------------|--------------------|
D||-------------------|------------------|--------------------|



-------------------|--------------------|--------------------|
--0----------------|--------------------|--------------------|
-------------------|--0---------------0-|--0---------------0-|
-------------------|--------------------|--------------------|


     
--------------------|----------------------|----------------------|
--------------------|-------0--------------|----------------------|
--0---------------0-|--0---------3----2----|--0----0--------------|
--------------------|----------------------|------------5----2----|


             
---------------------|--------------------------------------|
---------------------|--------------------------------------|
--2----5----1--------|--------------------------------------|
---------------------|--1--1--1--1--1--1--1--1--1--1--1--1--|


                
--------------------------------------|--------------------------------------|
--------------------------------------|--------------------------------------|
--------------------------------------|--------------------------------------|
--9--8--6--4--8--6--4--3--6--4--3--0--|--1--1--1--1--1--1--1--1--1--1--1--1--|


             
-----------------------------------|--------------------------------------|
-----------------------------------|--------------------------------------|
-----------------------------------|--------------------------------------|
--9--8--6--4--3--1--2----2----2----|--1--1--1--1--1--1--1--1--1--1--1--1--|


                
--------------------------------------|--------------------------------------|
--------------------------------------|--------------------------------------|
--------------------------------------|--------------------------------------|
--9--8--6--4--8--6--4--3--6--4--3--0--|--1--1--1--1--1--1--1--1--1--1--1--1--|


            
--------------------------------|--------------------------|
--------------------------------|--------------------------|
--------------------------------|--------------------------|
--9--8--6--4--3--1--2----2------|--2----2------2----2------|


       
-------------------------------|------------------------------------|
-------------------------------|------------------------------------|
--------------3----3--3--1--4--|--3----3--3--1--4--3----3--3--3--3--|
--2----2-----------------------|------------------------------------|


              
-------------------------------------|-------------------------------------|
-----------2-------------------------|-------------------5--3--2-----3--2--|
--1--3--4-----4--1--3----3--3--1--4--|--3----3--3--3--3-----------4--------|
-------------------------------------|-------------------------------------|


             
-------------------------------------|------------------------------------|
--------2----------------------------|------------------------------------|
--4--3-----4--3--1--3----3--3--1--4--|--3----3--3--1--4--3----3--3--3--3--|
-------------------------------------|------------------------------------|


              
-------------------------------------|-------------------------------------|
-----------2-------------------------|-------------------5--3--2-----3--2--|
--1--3--4-----4--1--3----3--3--1--4--|--3----3--3--3--3-----------4--------|
-------------------------------------|-------------------------------------|


             
-------------------------------------|------------------------------------|
--------2-------------------------1--|----------------1-------------------|
--4--3-----4--3--1--5----5--5--3-----|--5----5--5--3-----5----5--5--5--5--|
-------------------------------------|------------------------------------|


              
-------------------------------------|-------------------2-----------------|
--------1--4--1-------------------1--|----------------------5--4--1--5--4--|
--3--5-----------3--5----5--5--3-----|--5----5--5--5--5--------------------|
-------------------------------------|-------------------------------------|


             
-------------------------------------|------------------------------------|
--1-----4--1----------------------1--|----------------1-------------------|
-----5--------5--3--5----5--5--3-----|--5----5--5--3-----5----5--5--5--5--|
-------------------------------------|------------------------------------|


              
-------------------------------------|-------------------2-----------------|
--------1--4--1-------------------1--|----------------------5--4--1-----4--|
--3--5-----------3--5----5--5--3-----|--5----5--5--5--5--------------5-----|
-------------------------------------|-------------------------------------|


          
--------------------------------------|--------------------------------|
--1-----4--1--------1-----------------|--------------------------------|
-----5--------5--3-----5--3--1--5--3--|--1--0--3--1--0-----------------|
--------------------------------------|-----------------5--4--4----2-4-|


      
--------------------------|--------------------------|
--------------------------|--------------------------|
-----1-----------------1--|-----------------1--------|
--5-----5--4----2-4-5-----|--5--4----2-4-5-----5--4--|


            
--------------------------|--------------------------|-------------------|
--------------------------|--------------------------|-------------------|
-----------1--------------|-----1-----------------1--|-------------------|
----2-4-5-----5--4----2-4-|--5-----5--4----2-4-5-----|--2----------------|


               
----------------------|--------------------------|--------------------------|
----------------------|--------------------------|--------------------------|
----------------------|-----1-----------------1--|-----------------1--------|
----------4--4----2-4-|--5-----5--4----2-4-5-----|--5--4----2-4-5-----5--4--|


              
--------------------------|--------------------------|----------------2----|
--------------------------|--------------------------|-----------2---------|
-----------1--------------|-----1-----------------1--|--0------------------|
----2-4-5-----5--4----2-4-|--5-----5--4----2-4-5-----|---------------------|


         
--------------------|------------------|------------------------------|
------2-------------|------------------|------------------------------|
-----------0--------|------------------|--4--4-4-4--4-4-4--4-4-4--4-4-|
--------------------|------------------|------------------------------|



------------------------------|------------------------------|
------------------------------|------------------------------|
--4--4-4-4--4-4-4--4-4-4--4-4-|--4--4-4-4--4-4-4--4-4-4--4-4-|
------------------------------|------------------------------|



------------------------------|------------------------------|
------------------------------|------------------------------|
--4--4-4-4--4-4-4--4-4-4--4-4-|--4--4-4-4--4-4-3--3-3-3--3-3-|
------------------------------|------------------------------|


  
----------------2-1-----1-------|------------------------------|
--------------------4-2---4-2-1-|------------------------------|
--3--3-3-4--4-4-----------------|--4--4-4-4--4-4-4--4-4-4--4-4-|
--------------------------------|------------------------------|



------------------------------|------------------------------|
------------------------------|------------------------------|
--4--4-4-4--4-4-4--4-4-4--4-4-|--4--4-4-4--4-4-4--4-4-4--4-4-|
------------------------------|------------------------------|


                 
----------------------------|----------------------------|--------------------|
----------------------------|----------------------------|--------------------|
----------------------------|-----------------5-5-5--5-5-|--4----3------------|
--7--7-7-7--7-7-6----4--4-4-|--4--4-4-2----7-------------|--------------------|


   
----------------------|-----------------------------------------|
----------------------|-----------------------------------------|
----------------------|-----------------------------------------|
----------10----10----|--10--10--10--7--7--7--7--7--7--7--7--7--|


                    
-------------------------------------------|
-------------------------------------------|
-----------8--7----------7-----------------|
--7--7--7--------12--10-----12--10--9--12--|


                  
---------------------------------------|---------------------------------------|
---------------------------------------|---------------------------------------|
---------------------------------------|---------------------------------------|
--10--9--6--7--7--7--7--7--7--7--7--7--|--7--7--7--7--7--12--10--9--7--8----8--|


      
--------------------------|--------------------------|
--------------------------|--------------------------|
--------------------------|--------------------------|
------8----8------8----8--|------8----8------2----2--|


             
------------------------------------|-------------------------------------|
------------------------------------|-------------------------------------|
------------------------------------|-------------------------------------|
--2--0--3--2----2--2--0--3--2----2--|--2--2--2--0--2--3--6--3--0--2----2--|


              
-------------------------------------|-------------------------------------|
-------------------------------------|-------------------------------------|
-------------------------------------|-------------------------------------|
--2--0--3--2----2--2--2--2--9--7--6--|--3--7--6--3--2--6--3--2--0--2----2--|


             
------------------------------------|-------------------------------------|
------------------------------------|-------------------------------------|
------------------------------------|-------------------------------------|
--2--0--3--2----2--2--0--3--2----2--|--2--2--2--0--2--3--6--3--0--2----2--|


              
-------------------------------------|-------------------------------------|
-------------------------------------|-------------------------------------|
-------------------------------------|-----------------------------4----4--|
--2--0--3--2----2--2--2--2--9--7--6--|--3--7--6--3--2--6--3--2--0----------|


             
------------------------------------|-------------------------------------|
------------------------------------|--------------------3----------------|
--4--2--5--4----4--4--2--5--4----4--|--4--4--4--2--4--5-----5--2--4----4--|
------------------------------------|-------------------------------------|


              
----------------------------1--------|-------------------------------------|
-------------------------------4--3--|-----4--3--------3-------------------|
--4--2--5--4----4--4--4--4-----------|--5--------5--4-----5--4--2--4----4--|
-------------------------------------|-------------------------------------|


             
------------------------------------|-------------------------------------|
------------------------------------|--------------------3----------------|
--4--2--5--4----4--4--2--5--4----4--|--4--4--4--2--4--5-----5--2--4----4--|
------------------------------------|-------------------------------------|


              
----------------------------1--------|-------------------------------------|
-------------------------------4--3--|-----4--3--------3-------------------|
--4--2--5--4----4--4--4--4-----------|--5--------5--4-----5--4--2----------|
-------------------------------------|-----------------------------4----4--|


      
--------------------------|--------------------------|
--------------------------|--------------------------|
-----------1--------------|-----1-----------------1--|
----2-4-5-----5--4----2-4-|--5-----5--4----2-4-5-----|


               
--------------------------|--------------------------|----------------------|
--------------------------|--------------------------|-----------------2----|
-----------------1--------|-----------1--------------|-----1--0-------------|
--5--4----2-4-5-----5--4--|----2-4-5-----5--4----2-4-|--5-------------------|


       
--2------------------|------------------|---------------------------|
-----------2---------|------------------|---------------------------|
----------------0----|------------------|------4--4-4-4--4-4-4--4-4-|
---------------------|------------------|---------------------------|



------------------------------|------------------------------|
------------------------------|------------------------------|
--4--4-4-4--4-4-4--4-4-4--4-4-|--4--4-4-4--4-4-4--4-4-4--4-4-|
------------------------------|------------------------------|



------------------------------|------------------------------|
------------------------------|------------------------------|
--4--4-4-4--4-4-4--4-4-4--4-4-|--4--4-4-4--4-4-4--4-4-3--3-3-|
------------------------------|------------------------------|


  
-----------------------2-1-----|--1----------------------------|
---------------------------4-2-|----4-2-1----------------------|
--3--3-3-3--3-3-4--4-4---------|----------4--4-4-4--4-4-4--4-4-|
-------------------------------|-------------------------------|



------------------------------|------------------------------|
------------------------------|------------------------------|
--4--4-4-4--4-4-4--4-4-4--4-4-|--4--4-4-4--4-4-4--4-4-4--4-4-|
------------------------------|------------------------------|


          
----------------------------|----------------------------|
----------------------------|----------------------------|
--4--4-4--------------------|------------------------5-5-|
---------7--7-7-7--7-7-6----|--4--4-4-4--4-4-2----7------|


                
-----------------------|-------------------|---------------------------------|
-----------------------|-------------------|---------------------------------|
--5--5-5-4----3--------|--------------3----|--3----3--3--3--4----4--4--4--4--|
-----------------------|-------------------|---------------------------------|


            
------------------------------------|------------------------------------|
------------------------------------|------------------------------------|
--4----4--4--4--4--4----4--4--4--4--|--4----4--4--4--4--5----5--5--5--5--|
------------------------------------|------------------------------------|


            
------------------------------------|------------------------------------|
------------------------------------|------------------------------------|
--5----5--5--5--5--5----5--5--5--5--|--5----5--5--5--5-------------------|
------------------------------------|-------------------8----8--8--8--8--|


            
------------------------------------|------------------------------------|
------------------------------------|------------------------------------|
------------------------------------|------------------------------------|
--8----8--8--8--8--8----8--8--8--8--|--8----8--8--8--8--7----7--7--7--7--|


            
------------------------------------|------------------------------------|
------------------------------------|------------------------------------|
------------------------------------|------------------------------------|
--7----7--7--7--7--7----7--7--7--7--|--7----7--7--7--7--7----7--7--7--7--|


            
------------------------------------|------------------------------------|
------------------------------------|------------------------------------|
------------------------------------|------------------------------------|
--7----7--7--7--7--7----7--7--7--7--|--7----7--7--7--7--6----6--6--6--6--|


            
------------------------------------|------------------------------------|
------------------------------------|------------------------------------|
------------------------------------|------------------------------------|
--6----6--6--6--6--6----6--6--6--6--|--6----6--6--6--6--5----5--5--5--5--|


            
------------------------------------|------------------------------------|
------------------------------------|------------------------------------|
------------------------------------|------------------------------------|
--5----5--5--5--5--5----5--5--5--5--|--5----5--5--5--5--4----4--4--4--4--|


            
------------------------------------|------------------------------------|
------------------------------------|------------------------------------|
------------------------------------|------------------------------------|
--4----4--4--4--4--4----4--4--4--4--|--4----4--4--4--4--3----3--3--3--3--|


            
------------------------------------|------------------------------------|
------------------------------------|------------------------------------|
------------------------------------|------------------------------------|
--3----3--3--3--3--3----3--3--3--3--|--3----3--3--3--3--2----2--2--2--2--|


    
------------------------------------|----------------------------|
------------------------------------|----------------------------|
------------------------------------|----------------------------|
--2----2--2--2--2--2----2--2--2--2--|--2----2--2--2--2/-7--------|


              
------------------|------------------|------------------|------------------|
------------------|------------------|------------------|------------------|
------------------|------------------|------------------|------------------|
------------------|------------------|------------------|------------------|



------------------|-------------------|----------------------|
------------------|-------------------|----------------------|
------------------|-------------------|----------------5--7--|
------------------|--------------7----|--7----------7--------|


         
-----------------------|------------------------|---------------------|
--7--------------------|------------------------|---------------------|
-----7--5--------------|------------------------|------------------5--|
-----------7----7------|------7--8--7--5--7--7--|----7----------7-----|


         
------------------------|-----------------------|---------------------|
-----7------------------|-----------------------|---------------------|
--7-----7--5------------|-----------------------|---------------------|
--------------7----7----|--------7--8--7--5--7--|--4----4----------4--|


           
-------------------------|------------------------|---------------------|
--------4----------------|----2-------------------|---------------------|
--2--4-----4--2----------|-------5--4--2----------|---------------------|
-----------------4----4--|------------------8--5--|--2--4----4----------|


              
-------------------------|----------------------|--------2--------2--------|
-----------4-------------|----------------------|--------------------------|
-----2--4-----4--2-------|----------------------|-----------0--0-----0--0--|
--4-----------------4----|--4----------4--5--4--|--2--4--------------------|


      
--3--------------3--2-----|-----2--------3-----------|
--------5-----5-----------|--------------------5-----|
-----0-----0-----------0--|--0-----0--0-----0-----0--|
--------------------------|--------------------------|


      
--3-----2--------2--------|--3--------------3--2-----|
--------------------------|--------5-----5-----------|
-----0-----0--0-----0--0--|-----0-----0-----------0--|
--------------------------|--------------------------|


      
-----2--------3-----------|--3-----------------------|
--------------------5-----|--------4--------4--------|
--0-----0--0-----0-----0--|-----0--------------------|
--------------------------|-----------4--4-----4--4--|


      
--------------------------|--------------------------|
--5-----2-----2--5--4-----|-----4--------5-----2-----|
--------------------------|--------------------------|
-----4-----4-----------4--|--4-----4--4-----4-----4--|


      
--------------------------|--------------------------|
--5-----4--------4--------|--5-----2-----2--5--4-----|
--------------------------|--------------------------|
-----4-----4--4-----4--4--|-----4-----4-----------4--|


      
--------------------------|--------------------------|
-----4--------5-----2-----|--5-----------------------|
--------------------------|--------------------------|
--4-----4--4-----4-----4--|-----4--7--7--7--7--7--7--|


      
--------------------------|--------------------------|
--------------------------|--------------------------|
--------------------------|--------------------------|
--7--7--7--7--7--7--7--7--|--7--7--7--7--7--7--7--7--|


      
--------------------------|--------------------------|
--------------------------|--------------------------|
--------------------------|--------------------------|
--7--7--7--7--7--7--7--7--|--7--7--7--7--7--7--7--7--|


     
--------------------------|-------------------------|
--------------------------|-------------------------|
--------------------------|------------------4--4-4-|
--7--5--5--5--3--3--3--2--|--2--2--6----6-----------|



------------------------------|------------------------------|
------------------------------|------------------------------|
--4--4-4-4--4-4-4--4-4-4--4-4-|--4--4-4-4--4-4-4--4-4-4--4-4-|
------------------------------|------------------------------|



------------------------------|------------------------------|
------------------------------|------------------------------|
--4--4-4-4--4-4-4--4-4-4--4-4-|--4--4-4-4--4-4-4--4-4-4--4-4-|
------------------------------|------------------------------|


  
------------------------------|---------2-1-----1--------------|
------------------------------|-------------4-2---4-2-1--------|
--4--4-4-3--3-3-3--3-3-3--3-3-|--4--4-4-----------------4--4-4-|
------------------------------|--------------------------------|



------------------------------|------------------------------|
------------------------------|------------------------------|
--4--4-4-4--4-4-4--4-4-4--4-4-|--4--4-4-4--4-4-4--4-4-4--4-4-|
------------------------------|------------------------------|


            
------------------------------|----------------------------|
------------------------------|----------------------------|
--4--4-4-4--4-4-4--4-4--------|----------------------------|
-----------------------7--7-7-|--7--7-7-6----4--4-4-4--4-4-|


  
--------------------------|----------------------|
--------------------------|----------------------|
----------5-5-5--5-5-4----|--3-------------------|
--2----7------------------|---------------3--3-3-|



------------------------------|------------------------------|
------------------------------|------------------------------|
------------------------------|------------------------------|
--3--3-3-3--3-3-3--3-3-3--3-3-|--3--3-3-3--3-3-3--3-3-3--3-3-|



------------------------------|------------------------------|
------------------------------|------------------------------|
------------------------------|------------------------------|
--3--3-3-3--3-3-3--3-3-3--3-3-|--3--3-3-3--3-3-3--3-3-3--3-3-|


     
------------------------------|-----------------------------------|
------------------------------|-----------------------------------|
------------------------------|-----------------------------------|
--3--3-3-2--2-2-2--2-2-2--2-2-|--3--3-3-11-10-8-6-10-8-6-5-3--3-3-|



------------------------------|------------------------------|
------------------------------|------------------------------|
------------------------------|------------------------------|
--3--3-3-3--3-3-3--3-3-3--3-3-|--3--3-3-3--3-3-3--3-3-3--3-3-|


     
---------------------------------|--------------------------------|
---------------------------------|--------------------------------|
---------------------------------|--------------------------------|
--3--3-3-3--3-3-3--3-3/11--11-11-|--11--11-11-10----8--8-8-8--8-8-|


            
---------------------------|-------------------|-------------------------|
---------------------------|-------------------|-------------------------|
---------------------------|-------------------|-------------------------|
--6/---11/-4-4-4--4-4-3----|--2----------------|------2----2----2--2--2--|


                  
--6--------6--------------|-------------6--------6--|--------------------------|
--------------------------|-------------------------|--------------------------|
-----4--4-----4--4--5--5--|--2----2--5-----4--4-----|--4--4--5--5--------------|
--------------------------|-------------------------|--------------6/-5--5/-4--|


                  
--6--------6--------------|-------------6--------6--|--------------------------|
--------------------------|-------------------------|--------------------------|
-----4--4-----4--4--5--5--|--2----2--5-----4--4-----|--4--4--5--5--------------|
--------------------------|-------------------------|--------------6/-5--5/-4--|


                  
--6--------6--------------|-------------6--------6--|--------------------------|
--------------------------|-------------------------|--------------------------|
-----4--4-----4--4--5--5--|--2----2--5-----4--4-----|--4--4--5--5--------------|
--------------------------|-------------------------|--------------6/-5--5/-4--|


                  
--6--------6--------------|-------------6--------6--|--------------------------|
--------------------------|-------------------------|--------------------------|
-----4--4-----4--4--5--5--|--2----2--5-----4--4-----|--4--4--5--5--------------|
--------------------------|-------------------------|--------------6/-5--5/-4--|


               
------------------|------------------||
------------------|------------------||
------------------|------------------||
------------------|------------------||


Текст, аккорды и табулатура для песни "The Relic", исполняет "Symphony X".
Используемые в песне аккорды можно найти в разделе Как брать аккорды. Аккорды для шестиструнной гитары. Другие песни можно найти на нашем сайте, воспользовавшись алфавитным указателем вверху страницы.


 
Ошибка в тексте? Выделите ошибку и нажмите Ctrl+Enter