Smoke and Mirrors
 
Transcribed and tabbed by Noghy

[email protected]
Sea of Lies: http://members.xoom.com/kansasanthem

intro solo
E-12-8------------------------7--12-8------------------------7--12-8------------|
B------10-------------------9---------10-------------------9---------10---------|
G---------9---------------9--------------9---------------9--------------9-------|
D-----------10----------9------------------10----------9------------------10----|
A--------------12--7-11-----------------------12--7-11-----------------------12-|
E-------------------------------------------------------------------------------|
 
E----------------10--15-11-----------------------------10--15-11-------------|
B-------------12-----------13-----------------------12-----------13----------|
G----------12-----------------12-----------------12-----------------12-------|
D-------12-----------------------13-----------12-----------------------13----|
A-10-14-----------------------------15--10-14-----------------------------15-|
E----------------------------------------------------------------------------|

 
E----------------10--15-11-----------------------------13-18-15-------------|
B-------------12-----------13-----------------------15----------16----------|
G----------12-----------------12-----------------15----------------15-------|
D-------12-----------------------13-----------15----------------------17----|
A-10-14-----------------------------15--13-17----------------------------18-|
E---------------------------------------------------------------------------|

E----------------13-15-11----------------------------10-11-8-----------|
B-------------15----------13----------------------11---------9---------|
G----------15----------------12----------------12--------------8-------|
D-------15----------------------13----------12-------------------10----|
A-13-17----------------------------15-10-13-------------------------11-|
E----------------------------------------------------------------------|

E------------7-12-8--------------------5-8-10-7-------------------7-11-|
B----------9--------10---------------6----------8---------------9------|
G--------9-------------9-----------5--------------7-----------7--------|
D------9-----------------10------7------------------9-------9----------|
A-7-11----------------------12-8----------------------10-11------------|
E----------------------------------------------------------------------|

E-12-8--------------------5-8-10-7---------------------7-5--12~--17~-|
B------10---------------6----------8-----------------9---------------|
G---------9-----------5--------------7-------------9-----------------|
D-----------10------7------------------9---------9-------------------|
A--------------12-8----------------------10-7-11---------------------|
E--------------------------------------------------------------------|

rythm guitar over solo :  
E---------------------------------------------------------------|
B---------------------------------------------------------------|
G---------------------------------------------------------------|
D-2-----2-----2-----5-----5-----5--8--8-----------------2-------|
A-0--2--0--2--0--5--3--5--3--5--3--5--6--5--3--1-----2--0--3--5-|
E----0-----0-----3-----3-----3--------------------4--0-----1--3-|

E----------------------------|
B----------------------------|
G----------------------------|
D----2-------------2-------2-|
A-2--0--3--5---2---0---2---0-|
E-0-----1--3---0-------0-----|

 
main riff ( x4 )
E-------------------------------------------------------------------|
B-------------------------------------------------------------------|
G-------------------------------------2-1-2-------2-1-2-------1-2---|
D-----2-----------3-0-----------------------------------------------|
A-0-0---0-0-3-2-0-------------3-2-0-0-------3-2-3-------5-4-5-------|
E---------------------4-0-4-0---------------------------------------|
 
E----------------------------------------------------------------------|
B----------------------------------------------------------------------|
G----------------------------------------------------------------------|
D-----2-----------3-0---0----------------------------------------------|
A-0-0---0-0-3-2-0-----2-----2-----------2-3-------2-0---0-2---3-2trill-|
E-------------------------4---4-0-1-1-1-----1-1-1-----4-----0----------|

pre-verse:(x2)
E--------------------------------------------|
B--------------------------------------------|
G--------------------------------------------|
D-2----------------------------------------8-|
A-0--0--0--3-2-3--0--0--5-3-5--0--0--0--0--6-|
E--------------------------------------------|
 
E------------------------------------------------------|
B------------------------------------------------------|
G------------------------------------------------------|
D-2------------------------------------3-6-------------|
A-0--0--0--3-2-3--0--0--5-3-5--0--0--0-----5-8-2-5-----|
E--------------------------------------------------4ah-|

verse 1 :
E-------------------------------------------------------------------|
B-------------------------------------------------6-5-3-------------|
G-------------------------------------4-2-1-5-4-2-------5-4-2-1-2---|
D-------------------------------3-2-0-----------------------------2-|
A-------------------------------------------------------------------|
E-0-0-0-0-0-(sim)-1-1-1-1-(sim)-------------------------------------|
 
E------------------------------------------|
B------------------------------------------|
G------------------------------------------|
D------------------------------------------|
A-------------------------------5h7p5--3-2-|
E-0-0-0-0-0-(sim)-1-1-1-1-(sim)------------|

E-------------------------------------------------------------------|
B-------------------------------------------------6-5-3-------------|
G-------------------------------------4-2-1-5-4-2-------5-4-2-1-2---|
D-------------------------------3-2-0-----------------------------2-|
A-------------------------------------------------------------------|
E-0-0-0-0-0-(sim)-1-1-1-1-(sim)-------------------------------------|
 
E---------------------------------------------------------------------|
B---------------------------------------------------------------------|
G-----------------------------------4-2-1-5-4-2-1---------------------|
D-----------------------------3-2-0---------------3-2-0--------2---2--|
A-------------------------------------------------------3-2-0----1----|
E-0-0-0-0-(sim)-1-1-1-1-(sim)---------------------------------------3-|

 pre-chorus:
E-----------------------------------------------------|
B-----------------------------------------------------|
G-----------------------------------------------------|
D---------------7-------------------------------4-----|
A-7-6--4--6-7-6-5-7-6--4--6-7-6--7-6--4--6-7-6--2--5--|
E-5-4--2--4-5-4---5-4--2--4-5-4--5-4--2--4-5-4-----3--|

E------------------------------------------------------------------|
B------------------------------------------------------------------|
G-----------------------------------------------4--5---------------|
D-7-6--4--6-7-6-5-7-6--4--6-7-6--7-6--4--6-7-6--2--5--6-------2--4-|
A-5-4--2--4-5-4---5-4--2--4-5-4--5-4--2--4-5-4-----3--4--2-1--0--2-|
E------------------------------------------------------------------|

 Chorus (x2)
E---------------------------------------------------------------------|
B---------------------------------------------------------------------|
G---------------------------------------------------------------------|
D---------------------------------------------------------------------|
A-----10-----7-----12----5h7-----5h7-----10-----7-----3p2---3p2---2p1-|
E-0-0----0-0---0-0---0-0-----0-0-----0-0----0-0---0-0-----0-----0-----|

E---------------------------------------|
B---------------------------------------|
G---------------------------------------|
D--------------------------------5----6-|
A-----10-----7-----12-----13-----3----4-|
E-0-0----0-0---0-0----0-0----0-0--------|

main riff
verse
pre-chorus
Chorus
last time chorus ends like this :
E-----------------------------|
B-----------------------------|
G-----------------------------|
D-5---7---7-7-7-7-7-7--7--7---|
A-3---5---5-5-5-5-5-5--5--5---|
E-----------------------------|

Melody
E----------------------------------------------------------|
B----------------------------------------------------------|
G---------------------------------------4--5--3h5p3--------|
D-5--4-5--4-5-7--------7--5-7-8---------------------6--5-4-|
A----------------6--5-------------6--5---------------------|
E----------------------------------------------------------|

E------------------------------------------------------|
B------------------------------------------------------|
G------8--7--5h7p5--------6--6--7--7--6-7--6-7-9-------|
D-5-4--------------8--7-5-------------------------8--7-|
A------------------------------------------------------|
E------------------------------------------------------|

E---------------------------------------------------------|
B------------------7--8-6p8h6-----------------------------|
G-9--7-9-10-------------------8--7-6--7-6-----------------|
D------------8--7--------------------------7---3--2--2--0-|
A---------------------------------------------------------|
E---------------------------------------------------------|

 Solo :
E--------------------------------------------------------------|
B--------------------------------------------------------------|
G-------------------4h7p4---4---------1/2----------------------|
D--------7-7-6---6--------6---3-6-2-3-2br-2--------------------|
A-/5h7-7-------7-----------------------------------------------|
E------------------------------------------4h5h7h10p7h10p7p5p4-|

E--------------------------------------------------------------|
B--------------------------------------------------------------|
G---------------------------------------7h9h10h13p10h13p10p9p7-|
D--------------------6h7h9h12p9h12p9p7p6-----------------------|
A-5h7h8h11p8h11p8p7p5------------------------------------------|
E--------------------------------------------------------------|

E-------------------------10h12h13h16p13h16p13p12p10-24-22-20-19-17-|
B-9h10h12h15p12h15p12p10p9------------------------------------------|
G-------------------------------------------------------------------|
D-------------------------------------------------------------------|
A-------------------------------------------------------------------|
E-------------------------------------------------------------------|

E----------------------------------------------7---7---------------------|
B-18-17-15-13-12-------------------------------------10---10-9------9-10-|
G----------------14--------------------------7---7------7------9-10------|
D-------------------15-12-10h12p10-9-6~--6-9-----------------------------|
A------------------------------------------------------------------------|
E------------------------------------------------------------------------|
 
E-------10-12-13-16-12-13-16-10-13-7-10-4-7-5-4---------------|
B-12-13-----------------------------------------6-3-5-1-0h1p0-|
G-------------------------------------------------------------|
D-------------------------------------------------------------|
A-------------------------------------------------------------|
E-------------------------------------------------------------|

E--------------16--------------------|
B-----------17----17-15-17-15-17-15b-|
G-2-1--------------------------------|
D-----3-2----------------------------|
A------------------------------------|
E------------------------------------|

Solo 2 : 
E-17-18-21-18-17h18p17-15----------18-17h18p17-15---------|
B-------------------------18-17-16---------------18-17-16-|
G---------------------------------------------------------|
D---------------------------------------------------------|
A---------------------------------------------------------|
E---------------------------------------------------------|

E----17-15-------------------------------------------------------|
B-15-------18-17-15-14-------------------------------------------|
G----------------------15-14-12----------------------------------|
D-------------------------------15-14-12-11----------------------|
A-------------------------------------------13-12-10-------------|
E----------------------------------------------------13-12-10-11-|
 
E---------------------------------------------------------|
B---------------------------------------------------------|
G----------------12-15-12-14-sl-17-sl-14-15-14-12-14-14~--|
D----------12-14------------------------------------------|
A----10-12------------------------------------------------|
E-12------------------------------------------------------|

E----------------------------------12-----------12-----------|
B-15b--15h17p15-----------------14------------------------14-|
G----------------------------14--------------12--------12----|
D-------------------------14--------------14--------14-------|
A---------------17--12-14--------------16--------------------|
E------------------------------------------------------------|

E-15h18p15h18----------12--------15-21p18h21p18p15h21p18h21p18p15-|
B-------------------14--------17----------------------------------|
G-------------12h15--------15-------------------------------------|
D-----------------------------------------------------------------|
A-----------------------------------------------------------------|
E-----------------------------------------------------------------|

E----18-22-23br-24b-24-b-24-----------------------------------|
B-20-------------------------------------------------13-12-13-|
G----------------------------------------------13-14----------|
D-------------------------------------12-14-12----------------|
A----------------------------12-14-15-------------------------|
E-------------------------------------------------------------|

E----12-14-16-17----------------------------------------------|
B-15-------------------------------------------------9--------|
G---------------------------------------------7-9-10---10-9-7-|
D----------------------------------7-6-7-9-10-----------------|
A----------------------------5-7-8----------------------------|
E------------------5-4-5-7-8----------------------------------|

E-------------------------------------------|
B-------------------------------------------|
G------10-9-7--------9-7--------------------|
D-10-9--------10-9-7-----10-9-7-6-----------|
A---------------------------------8-7-5-7ah-|
E-------------------------------------------|

 Main Riff
Chorus
Main riff
The song end like this :
E----------------------------|
B----------------------------|
G----------------------------|
D----------------7---2---2---|
A-7--5--4--3--2--5---0---0---|
E-5--3--2--1--0--------------|


Текст, аккорды и табулатура для песни "Smoke And Mirrors", исполняет "Symphony X".
Используемые в песне аккорды можно найти в разделе Как брать аккорды. Аккорды для шестиструнной гитары. Другие песни можно найти на нашем сайте, воспользовавшись алфавитным указателем вверху страницы.


 
Ошибка в тексте? Выделите ошибку и нажмите Ctrl+Enter