Only Hope by switchfoot
Tab and arrange 100% correct  
By: Ferdinand G. Dela Cruz
  I am the one of the greatest man alive in this cruel world!!!


   E      B     A   C#m     C#7      D      Em      F#
E|--------1-----------4--------------2---------------2----------|
B|--------4-----2-----5--------3-----3---------------3----------|
G|-1------4-----2-----6--------------2---------------4----------|
D|-2------4-----2-----6--------2-------------2-------4----------|
A|-2------1-----------4--------3-------------2-------2----------|
E|--------------------------------------------------------------|

E|---------------------------------------|
B|---------------------------------------|
G|--- -----------7--9--4--5--9-9-5-4-4-2-|
D|---------7--9--------------------------|
A|---5--7--------------------------------|
E|---------------------------------------|
	
E|---------------------------------------|
B|---------------------------------------|
G|0-0------------------------------------|
D|----2-4-5-4-2-0------------------------|
A|---------------------------------------|
E|---------------------------------------|

VERSE
E|--------------------------------------------------|
B|-----------------------0-----3-----3-----3--------|
G|-----7-----4-----2-----------------------------2--|
D|---9-----5-----4-----------2-----------2-----4----|
A|-7-----------2-------2---3-------2---3-----2------|
E|-------3-----------0-----------3------------------|
   	There's a song that's inside of my soul

E|--------------------------------------------------|
B|-----------------------0-----3-----3-----3--------|
G|-----7-----4-----2-----------------------------2--|
D|---9-----5-----4-----------2-----------2-----4----|
A|-7-----------2-------2---3-------2---3-----2------|
E|-------3-----------0-----------3------------------|
  It's the one that I've tried to write over and over again


E|--------------------------------------------------|
B|-----------------------0-----3-----3-----3--------|
G|-----7-----4-----2-----------------------------2--|
D|---9-----5-----4-----------2-----------2-----4----|
A|-7-----------2-------2---3-------2---3-----2------|
E|-------3-----------0-----------3------------------|
I'm awake in the infinite cold

E|--------------------------------------------------|
B|-----------------------0-----3-----3-----3--------|
G|-----7-----4-----2-----------------------------2--|
D|---9-----5-----4-----------2-----------2-----4----|
A|-7-----------2-------2---3-------2---3-----2------|
E|-------3-----------0-----------3------------------|
But you sing to me over and over again


CHORUS
E             B         A
So I lay my head back down
E                B
And I lift my hands and
 A       C#m    
Pray To be only yours
A       C#m    
Pray To be only yours

 C#7               B
I know now yours my only hope.

First guitar
E|---------------------------------------|
B|---------------------------------------|
G|--- -----------7--9--4--5--9-9-5-4-4-2-|
D|---------7--9--------------------------|
A|---5--7--------------------------------|
E|---------------------------------------|

E|---------------------------------------|
B|---------------------------------------|
G|0-0------------------------------------|
D|----2-4-5-4-2-0------------------------|
A|---------------------------------------|
E|---------------------------------------|

Second guitar
E|--------------------------------------------------|
B|-----------------------0-----3-----3-----3--------|
G|-----7-----4-----2-----------------------------2--|
D|---9-----5-----4-----------2-----------2-----4----|
A|-7-----------2-------2---3-------2---3-----2------|
E|-------3-----------0-----------3------------------|


VERSE 2
E|--------------------------------------------------|
B|-----------------------0-----3-----3-----3--------|
G|-----7-----4-----2-----------------------------2--|
D|---9-----5-----4-----------2-----------2-----4----|
A|-7-----------2-------2---3-------2---3-----2------|
E|-------3-----------0-----------3------------------|
Sing to me the songs of the stars

E|--------------------------------------------------|
B|-----------------------0-----3-----3-----3--------|
G|-----7-----4-----2-----------------------------2--|
D|---9-----5-----4-----------2-----------2-----4----|
A|-7-----------2-------2---3-------2---3-----2------|
E|-------3-----------0-----------3------------------|
Of your galaxy dancing and laughing and laughing again

E|--------------------------------------------------|
B|-----------------------0-----3-----3-----3--------|
G|-----7-----4-----2-----------------------------2--|
D|---9-----5-----4-----------2-----------2-----4----|
A|-7-----------2-------2---3-------2---3-----2------|
E|-------3-----------0-----------3------------------|
When it feels like my dreams are so far


E|--------------------------------------------------|
B|-----------------------0-----3-----3-----3--------|
G|-----7-----4-----2-----------------------------2--|
D|---9-----5-----4-----------2-----------2-----4----|
A|-7-----------2-------2---3-------2---3-----2------|
E|-------3-----------0-----------3------------------|
Sing to me of the plans that you have for me over again
CHORUS
E             B         A
So I lay my head back down
E                B
And I lift my hands and
 A       C#m    
Pray To be only yours
A       C#m    
Pray To be only yours

 C#7               B
I know now yours my only hope.
Violin (this is 100% correct)
E|---------------------------------------|
B|---------------------------------------|
G|---4-4-----4-4------------4-4----------|
D|-2-------0--------4-4---2--------------|
A|----------------2----------------------|
E|---------------------------------------|

E|---------------------------------------|
B|---------------------------------------|
G|-----------4-4-------------------------|
D|---5-5---0---------4-4-----5-5---------|
A|-3---------------2-------3-------------|
E|---------------------------------------|
       Tama no!!!!!!!!!!!

D             Em
I'll give my apathy
D             Em
I'm giving you all of me
D             Em
I want your symphony
F#                    B
Singing in all that I am
 A                B
At the top of my lungs
 A         B
Im giving back

chorus
 E              B        A 
and I lay my head back down
 E              B         A
And I lift my hands and Pray
C#m           A 
To be only yours
C#m                     A
And I pray to be only yours
C#m                    A
And pray to be only yours

 F#7                      B
I know now yours my only hope.

SABAY!!!!!!!
 Ending

First guitar
E|--------------------------------------------------|
B|-----------------------0-----3-----3-----3--------|
G|-----7-----4-----2-----------------------------2--|
D|---9-----5-----4-----------2-----------2-----4----|      2 times
A|-7-----------2-------2---3-------2---3-----2------|
E|-------3-----------0-----------3------------------|

Second guitar
E|---------------------------------------|
B|---------------------------------------|
G|--- -----------7--9--4--5--9-9-5-4-4-2-|
D|---------7--9--------------------------|
A|---5--7--------------------------------|
E|---------------------------------------|
                                          
B|---------------------------------------|
G|0-0------------------------------------|
D|----2-4-5-4-2-0------------------------|
A|---------------------------------------|
E|---------------------------------------|

LAST!!!!!!!!
E|---------------------------------------|
B|---------------------------------------|
G|--- -----------7--9--4--5--9-9-5-4-4-2-|
D|---------7--9--------------------------|
A|---5--7--------------------------------|
E|---------------------------------------|

E|---------------------------------------|                                       
B|---------------------------------------|
G|0-0------------------------------------|
D|----2-4-5-4-2-0------------------------|
A|------------------5--------------7-----|
E|---------------------------------------|


GALING NO!!!!!!!!!!

If any comments don't hesitate to go to city hall
Or email me at [email protected]


Текст, аккорды и табулатура для песни "Only Hope", исполняет "Switchfoot".
Используемые в песне аккорды можно найти в разделе Как брать аккорды. Аккорды для шестиструнной гитары. Другие песни можно найти на нашем сайте, воспользовавшись алфавитным указателем вверху страницы.


Слушать онлайн Only Hope


SwitchfootOnly Hope на Яндекс.Музыке


 
Ошибка в тексте? Выделите ошибку и нажмите Ctrl+Enter