***this is how it really goes, ive got the cd now. i perfected my old tab just to be cool.***

dropped d tuning

^= bend and back
X= muffled strings (touching, not pressing frets while playing)
/ and = slide

alright i know this is 100% perfect, i wouldnt waste my time if it wasnt.


intro:
E|-------------------------------------|
B|-------------------------------------|
G|-------------------------------------|
D|------4^-------4^--------4^---5555-7-|
A|-222------000-----------------5555-7-|
D|--------------------222-------5555-7-|


E|----------------------------------------------|
B|----------------------------------------------|
G|--444-------222-------------------------------|
D|--444--4^---222--4^---222--4^----0-2-0--5/7---|
A|--222-------000-------222--------0-2-0--5/7---|
D|----------------------222--------0-2-0--5/7---|

                                             |


Текст, аккорды и табулатура для песни "Meant To Live", исполняет "Switchfoot".
Используемые в песне аккорды можно найти в разделе Как брать аккорды. Аккорды для шестиструнной гитары. Другие песни можно найти на нашем сайте, воспользовавшись алфавитным указателем вверху страницы.


Слушать онлайн Meant To Live


SwitchfootMeant To Live на Яндекс.Музыке


 
Ошибка в тексте? Выделите ошибку и нажмите Ctrl+Enter