Perserverance of the Saints
The OC Supertones       
Supertones Strike Back
tabbed by jared gardner     [email protected]

the first three notes are E, A, E

verse
G|-------------------------------------------|
D|-------------------------------------------|
A|-7-5-0-3-5-7-9-7-5-0-7-5-0-3-5-7-5-9-7-5-0-|
E|-------------------------------------------|

chorus
G|---------------------------------|
D|---------------------------------|
A|-4-4-4-4---------2-2-2-2-0-0-0-0-|
E|---------0-0-0-0-----------------|

bridge 1
G|---------------------------------|
D|---------------------------------|
A|---------------------------------|
E|-0-5-5---0-5-5-5-0-5-5---0-5-5-5-|

bridge 2
G|---------------------------------|
D|---------------------------------|
A|-5-5-5-5-7-7-7-7-9-9-9-9-0-0-0-0-|
E|---------------------------------|

end on open E

that's it . . . wow, that didn't take long . . . anyway, i'm not sure if
it's actually right or not, but it should at least get u started . . .
if it doesn't, let me know: [email protected]


Текст, аккорды и табулатура для песни "Perserverance Of The Saints", исполняет "Supertones".
Используемые в песне аккорды можно найти в разделе Как брать аккорды. Аккорды для шестиструнной гитары. Другие песни можно найти на нашем сайте, воспользовавшись алфавитным указателем вверху страницы.


 
Ошибка в тексте? Выделите ошибку и нажмите Ctrl+Enter