размер: четыре четверти( на каждый аккорд приходится по четверти, исключение составляет проигрыш )
данную подборку предлагаю исполнить на 2 гитарах:
1-ая без всяких примочек первый куплет и соло.
2-ая с легким дисторшн(квинт-power аккордами) вступает после первого куплета.

  I        Dm         	       

|-o-|---|---|---|---|          
|---|---|-o-|---|---|
|---|-o-|---|---|---|       
|---|---|---|---|---|
|---|---|---|---|---|           
|---|---|---|---|---|

 I        A#         
|-o-|---|---|---|---|
|---|---|-o-|---|---|
|---|---|-o-|---|---|
|---|---|-o-|---|---|
|-o-|---|---|---|---|
|-o-|---|---|---|---|

 I        F          
|-o-|---|---|---|---|
|-o-|---|---|---|---|
|---|-o-|---|---|---|
|---|---|-o-|---|---|
|---|---|-o-|---|---|
|-o-|---|---|---|---|

 I        C          
|---|---|---|---|---|
|-o-|---|---|---|---|
|---|---|---|---|---|
|---|-o-|---|---|---|
|---|---|-o-|---|---|
|---|---|---|---|---|

 I        A          
|---|---|---|---|---|
|---|-o-|---|---|---|
|---|-o-|---|---|---|
|---|-o-|---|---|---|
|---|---|---|---|---|
|---|---|---|---|---|


Вступление: Dm--A#--F--C


Dm                   A#                     F
   I tried to be perfect but nothing was worth it
              C                 Dm
   I don't believe it makes me real
                     A#                     F
   I thought it'd be easy but no one believes me
            C                Dm       
   I meant all the things I said 
          A#               F
if you believe it's in my soul 
         C                    Dm
I'd say all the words that I know 
         A#               F
just to see if it would show 
           C                
that I'm trying to let you know 
                           Dm--A#--F--C
that I'm better off on my own 

Далее аналогично первому куплету...

this place is so empty 
my thoughts are so tempting 
I don't know how it got so bad 
sometimes it's so crazy that nothing can save me 
but it's the only thing that I have 

if you believe it's in my soul 
I'd say all the words that I know 
just to see if it would show 
that I'm trying to let you know 
that I'm better off on my own 

Далее проигрыш( тут на первый аккорд 3 четверти, а на второй 1):

 F                      A#
|-1-1-1-3-1-1-1-3-1-1-1-6-6-6-|          
|-----------------------------|
|-----------------------------| 2 раза      
|-----------------------------|
|-----------------------------|           
|-----------------------------|

затем соляк( тут на каждый аккорд 1 четверть):

 Dm        C           A#       F

|-------1--------0--|---------------------|          
|-------------------|------3---------1----|
|----2--------0-----|----3---------2------| 2 раза    
|-0-----------------|---------------------|
|----------3--------|--1------------------|           
|-------------------|-----------1---------|

После просто подержать A ( сделать кульминацию )
далее как и в первом куплете...

I tried to be perfect it just wasn't worth it 
nothing could ever be so wrong 
it's hard to believe me 
it never gets easy         
I guess I knew that all along 

if you believe it's in my soul 
I'd say all the words that I know 
just to see if it would show 
that I'm trying to let you know
                           F
that I'm better off on my own ( чем дольше звучат струны- тем красивее)


Текст, аккорды и табулатура для песни "Pieces", исполняет "Sum 41".
Используемые в песне аккорды можно найти в разделе Как брать аккорды. Аккорды для шестиструнной гитары. Другие песни можно найти на нашем сайте, воспользовавшись алфавитным указателем вверху страницы.


Слушать онлайн Pieces


Sum 41Pieces на Яндекс.Музыке


 
Ошибка в тексте? Выделите ошибку и нажмите Ctrl+Enter