'Skachoo!' -- Bass Tab
Performed by The Suicide Machines
From the album (demo?)
Music and Lyrics by: The Suicide Machines
(c) 199? on ? Records
----------
Tabbed by: Fidget ([email protected])
Ska/Punk/311 Bass Tab Archive -- http://members.aol.com/illihexill/index.html

Mean sounding intro and middle: (repeat 3x, 7x for middle)
==============================================

G:--------------------------------------
D:--------------------------------------
A:--------------------------------------
E:0--0-0-3-4-5-1--13-13-13-13----

Main happy theme: (Repeat 3x)
=========================

G:-------------------------------------
D:--6-7-9-7-6---------9-6-7-6-9---
A:7-----------9-7-6-9---------------
E:-------------------------------------

The riff with the doubled guitar/bass thing: (repeat 1x)
=============================================

G:---------------------------------------------------------------------
D:----------------------------4----------------------------------------
A:-7--5--4--------4--5--7----7-6-4-6-4----------7--5--4---------
E:---------7--5-----------------------------7-6-7-------------7--5--

The riff continued:
===============

G:--------------------------------------
D:---------4----------------------4----
A:4--5--7----7-6-7-4-6-4-6-7------
E:--------------------------------------

Bass coming back in after isolated guitar:
=================================

G:9-9-9-9-9-9-
D:---------------
A:---------------
E:---------------

Ending:
=======

G:----------------------------
D:----------------------------
A:----------------------------
E:7----5----4----2----0-12-


Fidget ([email protected])


Текст, аккорды и табулатура для песни "Skachoo", исполняет "Suicide Machines".
Используемые в песне аккорды можно найти в разделе Как брать аккорды. Аккорды для шестиструнной гитары. Другие песни можно найти на нашем сайте, воспользовавшись алфавитным указателем вверху страницы.


 
Ошибка в тексте? Выделите ошибку и нажмите Ctrl+Enter