SUICIDE'S AN ALTERNATIVE/YoU'LL BE SoRRY
                   +========================================+

  h - hammer on
  p - pull off
  b - bend (amount of bend above the measure)
  r - release bend
  x - muffled string
  ~ - vibrato
  / - slide up
   - slide down
  ^ - palm mute              
   
|----------------4--4-4-4-4/12-12-12-12---| 
|-------------4-----4-4-4-4/12-12-12-12---| intro, when they begin to   
|----------4--------4-4-4-4/12-12-12-12---| jam, destroy and i dunno
|-------3---------------------------------| what else..
|----2------------------------------------|
|-1---------------------------------------|

|-----------| 
|-----------|    
|------5-3--| repeatedly
|-3-5--5-3--| 
|-3-5--3-1--|
|-1-3-------|


|-----------------------------------------------|  
|-----------------------------------------------|   
|-0-0-9-0-7---0-0-9-0-7---0-0-9-0-7---7-7-7-7---| 
|-0-0-9-0-7---0-0-9-0-7---0-0-9-0-7---7-7-7-7---| 
|-8-8-7-8-5---8-8-7-8-5---8-8-7-8-5---5-5-5-5---| 0 - 10th fret
|-----------------------------------------------|

Here's how I think the first solo goes..
 
||----------------------------------------------------------------|     
||-full---------------------------------------------------full----|  
||-5b---5b-5b-5b-5b-5b-5b-5b-5b-5br-3---5-3-------------5-5b--3---|
||------------------------------------------5-3-5-3---------------|
||--------------------------------------------------5-3-----------|
||----------------------------------------------------------------|
very fast picking (can be doubled)
|----------------------------------------------------------------||     
|----------------------------------------------------------------||  
|--2-2-3-3-5-5-5-5-5-5-7-8-8-10-10-8-10-10-11-11-12~~------------||
|----------------------------------------------------------------||
|----------------------------------------------------------------||
|----------------------------------------------------------------||


|-----------------------------------|      
|-----------------------------------|   
|------------------------pick slide-| 
|-0--0--8--8--5-----------x--------| 
|-0--0--8--8--5-----------x--------| 0 - 10th fret
|-8--8--6--6--3-----------x--------|


|-----------------------------------------|      
|-----------------------------------------|   
|-----------------------------------------| 'you'll be sorry' riff
|-2----5----4----7----2----5----6----5----| 
|-2----5----4----7----2----5----6----5----|
|-0--x-3--x-2--x-5----0--x-3--x-4--x-3----|

|-----------------------------------------|------------------------|     
|-----------------------------------------|------------------------|  
|-----------------------------------------|-9---------------------|
|-2---------------------------------------|-9---------------------|
|-2-------------------6-7~~~--------------|-7----a-ha-ha-ha-hai---|
|-0---------------------------------------|------------------------|
                                                    
Written by Mike Muir.
Tabbed by Marko Petrov ([email protected])


Текст, аккорды и табулатура для песни "Suicides An Alternative", исполняет "Suicidal Tendencies".
Используемые в песне аккорды можно найти в разделе Как брать аккорды. Аккорды для шестиструнной гитары. Другие песни можно найти на нашем сайте, воспользовавшись алфавитным указателем вверху страницы.


 
Ошибка в тексте? Выделите ошибку и нажмите Ctrl+Enter