Suicidal Tendensies
Looking in your eyes
Transcribed by Ron Fluit (Netherlands)

Intro 
4*:
A|--5-5-5-3---333-333-333-333-333--| 

1*
A|--5-5-5-2--| 
  

Verse
3*:
A|--222-222-222-222-222-----------2--222-222-222-222-222--0-3-3-3-2---| 
E|-----------------------0-3-2-0--------------------------------------| 

1*:
A|--222-222-222-222-222----------2---222-222-222-222-222--0-3-3-3-3-5-| 
E|-----------------------0-3-2-0--------------------------------------| 

Chorus
A|--5-5-5-5-5-3----3-3-3-3-3-2---| 

A|--2-2-2-2-3-3-2----2-2-2-5-3-2-| 

A|--2-2-2-2-3-3-2----2-2-2-3-3-3-| 

A|--2-2-2-2-3-3-2----2-2-2-5-3-2-| 

A|--2-2-2-2-3-3-2----2-2-3-3-3-3-| 

Bridge
4*
A|--5-5-5-3---333-333-333-333-333--| 
1*
A|--5-5-5-2--| 

Repeat:  Verse + Chorus + Bridge

Outro (Solo) (12/8)
12*
A|--2---2-2-2-2---2-2-2-2---2-2-2-3-3-3-| 
1*
A|-5-5-5-5-5---5-5-5-5-3--3-3-3-3-3|

2*
A|--2---2-2-2-2---2-2-2-2---2-2-2-3-3-3-| 
1*
A|--5---5-5-5-5-5---5-5-5-5-3--3-3-3-3-3|

2*
A|--2---2-2-2-2---2-2-2-2---2-2-2-3-3-3-| 
1*
A|--5---5-5-5-5-5---5-5-5-5-3--3-3-3-3-3|

2*
A|--2---2-2-2-2---2-2-2-2---2-2-2-3-3-3-| 
1*
A|--5---5-5-5-5-5---5-5-5-5-3--3-3-3-3-3-------------2--2--2--2--2-(2)-|



Текст, аккорды и табулатура для песни "Looking In Your Eyes", исполняет "Suicidal Tendencies".
Используемые в песне аккорды можно найти в разделе Как брать аккорды. Аккорды для шестиструнной гитары. Другие песни можно найти на нашем сайте, воспользовавшись алфавитным указателем вверху страницы.


 
Ошибка в тексте? Выделите ошибку и нажмите Ctrl+Enter