JUST ANoTHER LoVE SoNG
                            +======================+
                              (for rhythm guitar)

  h - hammer on
  p - pull off
  b - bend (amount of bend above the measure)
  r - release bend
  x - muffled string
  / - slide up
   - slide down
  ^ - palm mute              
   
|---------------|
|---------------|
|---------------|
|-------------0-|
|-0-2-3-0-2-3---|
|---------------|

|---------------------------------------------------------|
|---------------------------------------------------------|
|---------------------------------------------------------|
|--------------2------------7/9-----9-------------------0-|
|-2------54---0------------5/7-----7-------0-2-3-0-2-3---|
|-0--0-0-32-0----0-0-0-0-0-----0-0---0-0-0---------------|
     ^ ^     ^    ^ ^ ^ ^ ^     ^ ^   ^ ^ ^

|---------------------------------------------------------|
|---------------------------------------------------------|
|----------------------------------------------------7-6--|
|-4--4-4-4-4-4-4---------------5--5-5-5-5-5-7--7-7-7-5-4--|
|-2--2-2-2-2-2-2-0-2-3-0-2-3-0-3--3-3-3-3-3-5--5-5-5------|
|---------------------------------------------------------|
     ^ ^ ^ ^ ^ ^                  ^ ^ ^ ^ ^    ^ ^ ^   
  
|-------------------------------|
|-------------------------------|
|-------------------------------|
|-------------------------------|
|----------4/5-4----------4/5-7-|
|-00000000-2/3-2-00000000-2/3-5-|
  ^^^^^^^^       ^^^^^^^^

|---------------------------------|-----------------------------|
|---------------------------------|-----------------------------|
|---------------------------------|-----------------------------|
|----------7-5-------------7-6--2-|----------7-5-------------5~-|
|-22222222-5-3--0-22222222-5-4----|-22222222-5-3--0-22222222----|
|---------------------------------|-----------------------------|
  ^^^^^^^^        ^^^^^^^^          ^^^^^^^^        ^^^^^^^^

|-----------------------|-------------------------|
|-----------------------|-------------------------|
|-----------------------|-------------------------|
|-----------------------|-------------------------|
|-5--x7--x8---7/87-5-5-|-5--x7--x8---0-1-0-------|
|-3--x5--x6---5/65-3-3-|-3--x5--x6---------3-1-3-|
                    ^ ^               ^ ^ ^ ^ ^ ^

|-----------------------|-------------------------| X3
|-----------------------|-------------------------|
|-----------------------|-------------------------|
|-----------------------|-------------------------|
|-5--x7--x8---7/87-5-5-|-5--x7--x8---7/87-------|
|-3--x5--x6---5/65-3-3-|-3--x5--x6---5/65-------|
                    ^ ^               
Song ends like this...

|-------------------------------|-----------------|
|-------------------------------|-----------------|
|-------------------------------|-----------------|
|-------------------------------|-----------------|
|----------4/5-4----------4-5-7-|-2---------------|
|-00000000-2/3-2-00000000-2-3-5-|-0---------------|
  ^^^^^^^^       ^^^^^^^^ ^ ^ ^ 

Written by Muir-George-Clark.
Tabbed by Marko Petrov ([email protected])


Текст, аккорды и табулатура для песни "Just Another Love Song", исполняет "Suicidal Tendencies".
Используемые в песне аккорды можно найти в разделе Как брать аккорды. Аккорды для шестиструнной гитары. Другие песни можно найти на нашем сайте, воспользовавшись алфавитным указателем вверху страницы.


 
Ошибка в тексте? Выделите ошибку и нажмите Ctrl+Enter