Sugarcult - Pretty Girl

Standard tuning - capo on 1st fret

intro:
e--------0-------0-------0-------0-----------------------------------|
B----1-------1-------1-------1-----------3-------3-------3-------3---|
G------2---2---2---2---2---2---2---2-2-------4-------5-------4-------|
D--------------------------------------3---3---3---3---3---3---3---3-| {repeat}
A--------------------------------------------------------------------|
E--------------------------------------------------------------------|


e----14--13--------------------------14--13----------------------|
B------------14------------------------------14------------------|
G------------------15------15----------------------15------15----|
D----------------------15------15----------------------15--------|
A----------------------------------------------------------------|
E----------------------------------------------------------------|




verse:
e--------------------------------------------------------|
B--------------------------------------------------------|
G----2-2-2-2-2----2-2-2-2-2------------------------------|
D----2-2-2-2-2----2-2-2-2-2----3-3-3-3-3----3-3-3-3-3----| {repeat}
A----0-0-0-0-0----0-0-0-0-0----3-3-3-3-3----3-3-3-3-3----|
E------------------------------1-1-1-1-1----1-1-1-1-1----|


e------------------------|
B------------------------|
G----2--------------2----|
D----2----3----5----3----| {repeat}
A----0----3----5----3----|
E---------1----3---------|




chorus:
e--------------------------------------------|
B--------------------------------------------|
G---------2---------2---------2--------------|
D---------2----5----2----5----2----5----3----|
A---------0----3----0----3----0----3----3----|
E--------------3---------3---------3----1----|

It's the way...


Текст, аккорды и табулатура для песни "Pretty Girl", исполняет "Sugarcult".
Используемые в песне аккорды можно найти в разделе Как брать аккорды. Аккорды для шестиструнной гитары. Другие песни можно найти на нашем сайте, воспользовавшись алфавитным указателем вверху страницы.


 
Ошибка в тексте? Выделите ошибку и нажмите Ctrl+Enter