Band:  Sugarcult
Song:  Pretty Girl (The Way)
Album: Start Static

Tuned up a step (F-A#-D#-G#-C-F)

Intro Part I:
------1-------1-------1-------1-------------------------------------|
--2-------1-------2-------1--------------2-------2---2---2-------2--|
----3---3---3---3---3---3---3---3----3-------5---------------5------|
---------------------------------------4---4---4---4---4---4---4---4|
--------------------------------------------------------------------|
--------------------------------------------------------------------|

Intro Part II:
(Guitar 1)
----13--12--------------------------13--12----------------------|
------------13------------------------------13------------------|
------------------14------14----------------------14------14----|
----------------------14------14----------------------14--------|
----------------------------------------------------------------|
----------------------------------------------------------------|

Intro Part II:
(Guitar 2)
-0-0--0---0-0--0---0-0--0---0-0--0---0-0--0---0-0--0---0-0--0---------
-1-1--1---0-0--0---3-3--3---3-3--3---1-1--1---0-0--0---3-3--3---------
-2-2--2---2-2--2---2-2--2---2-2--2---2-2--2---2-2--2---2-2--2---------
-2-2--2---2-2--2---3-3--3---2-2--2---2-2--2---2-2--2---3-3--3---------
-0-0--0---0-0--0---0-0--0---0-0--0---0-0--0---0-0--0---0-0--0---------
----------------------------------------------------------------5-7-5-



Pre-chorus:
-----------------------------------------------------------------
---1---1---1---1---0---0---0---0---3---3---3---3---1---1---1---1-
-2---2---2---2---2---2---2---2---2---2---2---2---2---2---2---2---
-----------------------------------------------------------------
-----------------------------------------------------------------
-----------------------------------------------------------------

Chorus:
--------------------------------------------
--------------------------------------------
----2---------2---------2---------2--4--5-4-
----2----5----2----5----2----5----2--4--3-4-
----0----5----0----5----0----5----0--2--3-2-
---------3---------3---------3--------------

Interlude
(Guitar 1)
e|---------------------------------------------
B|---------------------------------------------
G|--2-2-2-2--4-4-4-4--7-7-7-7--10-10-9-9-------
D|--2-2-2-2--4-4-4-4--7-7-7-7--10-10-9-9-------
A|--0-0-0-0--2-2-2-2--5-5-5-5---8--8-7-7-------
E|---------------------------------------------

Interlude
(Guitar 2)
Distortion w/wah or chorus effect
e|------------------------------------------------|
B|------------------------------------------------|
G|------------------------------------------------|
D|------------------------------------------------|
A|-0~0~0~0~--2~2~2~2~--5~5~5~5~--8-7~-------------|
E|------------------------------------------------|

VERSE 1 again with slight variation
NO INSTRUMENTALS
CHORUS
INTERLUDE

OUTRO
(casualy pick)
Clean Channel
---------------------------------------------------------------------
-------------------------------5-------5--------4-------4----------2-
---5~--4~---7~---10~--9~---5-------4---------5------4------------0---
-----------------------------7---7---7---7-----2--2---2--2-----2-----
-------------------------------------------------------------0-------
---------------------------------------------------------------------

Tabbed by [email protected]


Текст, аккорды и табулатура для песни "Pretty Girl", исполняет "Sugarcult".
Используемые в песне аккорды можно найти в разделе Как брать аккорды. Аккорды для шестиструнной гитары. Другие песни можно найти на нашем сайте, воспользовавшись алфавитным указателем вверху страницы.


 
Ошибка в тексте? Выделите ошибку и нажмите Ctrl+Enter