Verse (0:17)

G|----------------------------------------------------------------------|
D|-----------------------------------44444444444444444------------------|
A|-------------------6666666666666666-----------------------------------|
E|--44444444444444444---------------------------------4444444444444444--| 


Chorus (0:29)

G|-----------------------------------------------------------------------|
D|-----------------44444444444444444-------------------------------------|   2x
A|--444444444444444------------------------------------------------------|
E|----------------------------------66666666666666666-44444444444444444--| 

       (0:51)

G|----------------------|
D|----------------------|   2x
A|--4-------------------|
E|----4-4--2--2-2--2-2--| 

Verse (0:57)

G|----------------------------------------------------------------------|
D|-----------------------------------44444444444444444------------------|   2x
A|-------------------6666666666666666-----------------------------------|
E|--44444444444444444---------------------------------4444444444444444--| 

Chorus (1:20)

G|-----------------------------------------------------------------------|
D|-----------------44444444444444444-------------------------------------|   2x
A|--444444444444444------------------------------------------------------|
E|----------------------------------66666666666666666-44444444444444444--| 

Bridge (1:44)

G|------------------------------------------------------------------------|
D|------------------------------------------------------------------------|
A|--444444444444---------------------44444444444444444--------------------|
E|--------------4444--222222222222222-----------------4--222222222222222--| 

G|----------------------------------------------------------------------------|
D|----------------------------------------------------------------------------|
A|----------------------------------------------------------------------------|
E|--666666666666-4444-2222222222222222--666666666666--44444--2222222222222222-| 

      (2:05)

G|------------------------|
D|------------------------|
A|------------------2222--|
E|--2222--4444--6666------| 


Verse (2:22)

G|----------------------------------------------------------------------|
D|-----------------------------------44444444444444444------------------|   
A|-------------------6666666666666666-----------------------------------|
E|--44444444444444444---------------------------------4444444444444444--| 

Chorus (2:33) 

G|-----------------------------------------------------------------------|
D|-----------------44444444444444444-------------------------------------|   2x
A|--444444444444444------------------------------------------------------|
E|----------------------------------66666666666666666-44444444444444444--| 

 

G|------------------------------------------------------------------------------|
D|------------------------------------------------------------------------------|   2x
A|--4444444444444444------------------------------------------------------------|
E|------------------44444--2222222222222222--666666666666666--4444444444444444--| 



G|----------------------|
D|----------------------|   4x
A|--4-------------------|
E|----4-4--2--2-2--2-2--|


Текст, аккорды и табулатура для песни "Memory", исполняет "Sugarcult".
Используемые в песне аккорды можно найти в разделе Как брать аккорды. Аккорды для шестиструнной гитары. Другие песни можно найти на нашем сайте, воспользовавшись алфавитным указателем вверху страницы.


 
Ошибка в тексте? Выделите ошибку и нажмите Ctrl+Enter