Artist:		Sugarcult 
Song:		Memory [acoustic]
Album:		Punk Goes Acoustic
Tabbed by:	Per Karlsson [[email protected]]

Tuning:		Standard

Note:		Listen to the song for strumming patterns

Legend:		x - mute
	       () - optional
		~ - Let it ring

Guitar 1:	Acoustic
Guitar 2:	Acoustic
Guitar 3:	Electric


INTRO/VERSE:
e|----------------------x--|
B|----------------------x--|
G|--6----6----6----6----x--|
D|--3----4----4----6----x--|
A|--4----6----4----4----x--|
E|--4----x----x----4----x--|

CHORUS:
Guitar 1 & 2
     Part 1 x2            Part 2
e|-(4)---2----1----4--|-(4)---x--|
B|-(4)---2----2----4--|-(4)---x--|
G|--6----3----3----5--|--6----x--|
D|--6----4----3----6--|--6----x--|
A|--4----4----1----6--|--4----x--|
E|--4----2----x----4--|--4----x--|
Guitar 3
e|----4---4---4---4---2---2---2---2---1---1---1---1---4---4---4---4--|
B|--6---6---6---6---2---2---2---2---2---2---2---2---4---4---4---4----|
G|-------------------------------------------------------------------|
D|-------------------------------------------------------------------|
A|-------------------------------------------------------------------|
E|-------------------------------------------------------------------|

BRIDGE:
Guitar 1
     Part 1 x2         Part 2 x2       Part 3
e|-(4)---4----2----|--1----4----2--|----2----|
B|-(4)---4----2----|--2----4----2--|----2----|
G|--6----5----3----|--3----5----3--|----3----|
D|--6----6----4----|--3----6----4--|----4----|
A|--4----6----4----|--1----6----4--|----4----|
E|--4----4----2----|--x----4----2--|----2----|

Guitar 2
     Part 1 x2
e|-----------------------------------|
B|--4-4---4---4---4-----2-----2------|
G|------6---5---------3-----3-----3--|
D|--------------6---4-----4-----4----|
A|-----------------------------------|
E|-----------------------------------|
     Part 2 x1
e|----------------------2-----2------|
B|------2-----2----------------------|
G|----3-----3-----5---3-----3-----3--|
D|--3-----3-----6---4-----4-----4----|
A|-----------------------------------|
E|-----------------------------------|
     Part 3 x1
e|---------------------------------------------------------|
B|------2-----2--------------------------------------------|
G|----3-----3-----5-------------------------------10---10--|
D|--3-----3-----6---444444444-66666666-88888888-8----8-----|
A|---------------------------------------------------------|
E|---------------------------------------------------------|

ENDING:
Guitar 1 & 2:
e|-(4)--4-2----1----4--|-(4)--4-2----1----4----2----4--|--1--|
B|-(4)--4-2----2----4--|-(4)--4-2----2----4----2----4--|--2--|
G|--6---5-3----3----5--|--6---5-3----3----5----3----5--|--3--|
D|--6---6-4----3----6--|--6---6-4----3----6----4----6--|--3--|
A|--4---6-4----1----6--|--4---6-4----1----6----4----6--|--1--|
E|--4---4-2----x----4--|--4---4-2----x----4----2----4--|--x--|
Guitar 3: Five parts - Listen for timing
e|----1---1---1---1~~|----4---4---4---4~~|----1---1~~|----1---1---1~~|--1~~|
B|--2---2---2---2----|--4---4---4---4----|--2---2----|--2---2---2----|--2~~|
G|-------------------|-------------------|-----------|---------------|-----|
D|-------------------|-------------------|-----------|---------------|-----|
A|-------------------|-------------------|-----------|---------------|-----|
E|-------------------|-------------------|-----------|---------------|-----|

OUTRO:
Guitar 1:
|----1------1------1------1---1~~|
|--4------4------4------4-----4~~|
|------3------3------3------3-3~~|
|-----------------------------1~~|
|--------------------------------|
|--------------------------------|


Текст, аккорды и табулатура для песни "Memory", исполняет "Sugarcult".
Используемые в песне аккорды можно найти в разделе Как брать аккорды. Аккорды для шестиструнной гитары. Другие песни можно найти на нашем сайте, воспользовавшись алфавитным указателем вверху страницы.


 
Ошибка в тексте? Выделите ошибку и нажмите Ctrl+Enter