this song is great and easy, and hey, I have the first part of the solo,
isn't that special! so lets get started, sha;; we.

e-------------------
b-------------------
d-------6-6-4-4-4-4- x8 on the first refrain
g--4-4--6-6-4-4-4-4-
a--4-4--4-4-2-2-2-2-
E--2-2--------------

I'm bouncing off the walls again, I'm looking like a fool again
I threw away my reputation, one more song for the RADIO STATION
I'm bouncing off the walls again, I'm looking like a fool again
waking up on the bathroom floor pull myself back toghether just to fall once more

e-------------------------------------------------------
b-------------------------------------------------------
g--8-4-6-8----8-4-6-8-8--8-4-6-8-8--8-4-6-8-8---6-6-6-6-
d--8-4-6-8-8--8-4-6-8-8--8-4-6-8-8--8-4-6-8-8-2-6-6-6-6-verse
a--6-2-4-6-8--6-2-4-6-8--6-2-4-6-8--6-2-4-6-8-2-4-4-4-4-
E----------6---------------------6----------6-0---------

My heart is beating out of my chest, this town is still making me sick 
And every penny from my last pay check I've blown it on you

e--------------------
b--------------------
g--------------------
d--2-2-4-4-2-2-2-2-2- x4 on second refrain
a--2-2-4-4-2-2-2-2-2-
E--2-2---------------

I'm bouncing off the walls again, I'm looking like a fool again
So go ahead and take a picture, and hang it up so you can tear me down

e--------------------------------------------
b--------------------------------------------
g--8-4-6-8----8-4-6-8----8-4-6-8-----6-6-6-6-
d--8-4-6-8-8--8-4-6-8-8--8-4-6-8-8-2-6-6-6-6-verse
a--6-2-4-6-8--6-2-4-6-8--6-2-4-6-8-2-4-4-4-4-
E----------6----------6----------6-0---------

I don't care cause I'm still here
And I've go nothing left to lose with all the years I've wasted on you

(solo)
e--4-0-4-0-5-5-5-5-5--0-4-0-7-7-7-7-7-7--4-0-4-0-------------7-
b------------------------------------------------4-5-7-5-4-5---
g--------------------------------------------------------------
d--------------------------------------------------------------
a--------------------------------------------------------------
E--------------------------------------------------------------

(optional)You can play the verse line on this part
Mom and Daddy's got the best cocaine
ritalin's never ganna feel the same
24 hours on an empty brain
I got my finger on th triger and your in my way

repete refrain and you're done
any questions, comments, or complaints e-mail me at [email protected] Peace out
and rock on!!! :) love Katelyn


Текст, аккорды и табулатура для песни "Bouncing Off The Walls", исполняет "Sugarcult".
Используемые в песне аккорды можно найти в разделе Как брать аккорды. Аккорды для шестиструнной гитары. Другие песни можно найти на нашем сайте, воспользовавшись алфавитным указателем вверху страницы.


 
Ошибка в тексте? Выделите ошибку и нажмите Ctrl+Enter