Artist: Sugar Ray
Song: Every morning
Tuning: Normal
Transcribed by: Bruno Calatroni
Email: [email protected]

This song is almost perfect. I have most of it here, but some of the
lead guitar on the intro sounds like 2 strings are being played but im
still trying to figure it out. Here's most of it though.

Parentheses mean that the note is optional.

Intro:

E---------------------------------------------------------------------
B---2/4-4---6--4--6--4-----2--4--2--4--2-----1--2--1-------/4-4--4--4-
G-----------------------------------------------------(1)-------------
D---------------------------------------------------------------------
A---------------------------------------------------------------------
E---------------------------------------------------------------------

E-----------------------------------
B--4/6~~----4p2---1~~~--------------
G-----------------------------------
D-----------------------------------
A-----------------------------------
E-----------------------------------

Heres the rhythm guitar which is the main riff throughout the song

E--(4)(4)(4)(4)(4)--------------------------------------------
B---4--4--4--4--4----8--6-----6--6--6--6----8--8-------------
G---5--5--5--5--5----8--6-----6--6--6--6----8--8-------------
D---6--6--6--6--6----8--6-----6--6--6--6----8--8-------------
A---6--6--6--6--6----6--4-----4--4--4--4----6--6-------------
E---4--4--4--4--4--------------------------------------------


couldn't understand...............( guitar 2, guitar 1 tacet )

E--11---------11----10----9---------9-----10----11---------------------
B-(9)--------(9)---(8)---(7)-------(7)---(8)---(9)---------------------
G--8----------8-----7-----6---------6-----7-----8----------------------
D----------------------------------------------------------------------
A----------------------------------------------------------------------
E----------------------------------------------------------------------


she always.........( slightly palm muted )

E------------------------------------------------------
B------------------------------------------------------
G---6--6--6--6--6--6--6--6-----8--8--8--8--8--8--8--8--
D---6--6--6--6--6--6--6--6-----8--8--8--8--8--8--8--8--
A---4--4--4--4--4--4--4--4-----6--6--6--6--6--6--6--6--
E------------------------------------------------------

E------------------------------------------------------
B------------------------------------------------------
G------------------------------------------------------
D---6--6--6--6--6--6--6--6-----3--3--3--3--3--3--3--3--
A---6--6--6--6--6--6--6--6-----3--3--3--3--3--3--3--3--
E---4--4--4--4--4--4--4--4-----1--1--1--1--1--1--1--1--

E------------------------------------------------------
B------------------------------------------------------
G---6--6--6--6--6--6--6--6-----8--8--8--8--8--8--8--8--   BACK TO
D---6--6--6--6--6--6--6--6-----8--8--8--8--8--8--8--8--   MAIN RIFF
A---4--4--4--4--4--4--4--4-----6--6--6--6--6--6--6--6--
E------------------------------------------------------

Fill ( played once in a while throughout the song )

E-------------------------------------------
B---/4-4--4--4-----4/6~~----4p2----1~~~-----
G-------------------------------------------
D-------------------------------------------
A-------------------------------------------
E-------------------------------------------

Ending: just play the main riff in a different rhythm.


Thats it. let me know what you think and leave any comments
at [email protected]



Текст, аккорды и табулатура для песни "Every Morning", исполняет "Sugar Ray".
Используемые в песне аккорды можно найти в разделе Как брать аккорды. Аккорды для шестиструнной гитары. Другие песни можно найти на нашем сайте, воспользовавшись алфавитным указателем вверху страницы.


 
Ошибка в тексте? Выделите ошибку и нажмите Ctrl+Enter