Band: Sugar Ray
Song: Answer the Phone
Tabbed by: Josh Wyatt
e-mail: [email protected]

CAPO ON FIRST FRET!!!!

Intro
e-----------------------------------------
B----3---3-----3---3----3---3----3---3---- 
G---0-0-0-0---2-2-2-2--0-0-0-0--0-0-0-3---
D------------0--------2--------3----------
A-----------------------------------------
E--3--------------------------------------

second guitar comes in with chords (also capo at 1st)

e--------------
B--------------
G-----7--9--5--
D--5--7--9--5--
A--5--5--7--3--
E--3-----------

first guitar enters again with palm muted 
e-----
B-----
G--7--
D--7--
A--5--
E-----
and then 

e---------------------------------
B---------------------------------
G-----7--9--5--10-9-55-10-9-55----
D--5--7--9--5--10-9-55-10-9-55---
A--5--5--7--3--8--7-33--8-7-33---
E--3-----------------------------

Verse (no guitar at first, until quick slide into quite palm muted chords) NOTE* chord #'s are placed due to the capo! technically the first chord is a G#, but i wrote it as a G because the capo excluedes the first fret

e----------------
B----------------
G--13--7--9--10--
D--13--7--9--10--
A--11--5--7--8---
E----------------

Chorus

e--------------
B--------------
G-----7--9--5-- repeat
D--5--7--9--5--
A--5--5--7--3--
E--3-----------

repeat Verse

Chorus 2

e-------------------------
B-------------------------
G-----7--9--5-----7--9--7-
D--5--7--9--5--5--7--9--7-
A--5--5--7--3--5--5--7--5-
E--3-----------3----------

Bridge

e------------------------
B------------------------
G----5-----7----9----7---
D---5-5---7-7--9-9--7-7-- 3 times  then do intro again
A--3-----5----7----5-----
E------------------------

BIG PICK SCRATCH

e--------------
B--------------
G----7-9-10----
D--5-7-9-10----
A--5-5-7-8-----
E--3-----------

end Chorus

e--------------
B--------------
G-----7--9--5--
D--5--7--9--5-- 3 times
A--5--5--7--3--
E--3-----------


THAT'S IT!
I know it's long, but the chords pretty much repeat over and over, there are only minor changes in the progression...
any questions or comments, just e-mail... thanks


Текст, аккорды и табулатура для песни "Answer The Phone", исполняет "Sugar Ray".
Используемые в песне аккорды можно найти в разделе Как брать аккорды. Аккорды для шестиструнной гитары. Другие песни можно найти на нашем сайте, воспользовавшись алфавитным указателем вверху страницы.


 
Ошибка в тексте? Выделите ошибку и нажмите Ctrl+Enter