Здесь только проигрыш и риффы на которых в принципе и построена вся песня.
За точность не ручаюсь


------------------------------------------------------------------------------
------------------------------------------------------------------------------
------------------------------------------------------------------------------
-7--3--5----------------------------------------------------------------------
-7--3--5----------------------------------------------------------------------
-5--1--3----------------------------------------------------------------------
 janie always said i was a mess.............                                  

------------------------------------------------------------------------------
-10-10-13-15h16h17p15-13-6-13h15h16p15p15h15-16h17p16h17p16h17p16h17p16-------
------------------------------------------------------------------------------
------------------------------------------------------------------------------
------------------------------------------------------------------------------
------------------------------------------------------------------------------
  first part of solo                                                          

------------------------------------------------------------------------------
------------------------------------------------------------------------------
---------------------------------------------------------12-------------------
-7-7-10-12-14-12-10-3-3/10-12-13-13-12-10-12-10-14-14-14----14-21brbrbr-------
------------------------------------------------------------------------------
------------------------------------------------------------------------------


Текст, аккорды и табулатура для песни "Seed", исполняет "Sublime".
Используемые в песне аккорды можно найти в разделе Как брать аккорды. Аккорды для шестиструнной гитары. Другие песни можно найти на нашем сайте, воспользовавшись алфавитным указателем вверху страницы.


 
Ошибка в тексте? Выделите ошибку и нажмите Ctrl+Enter