Intro- guitar 1 plays a B [x777xx]

guitar 2
----------------------|
----------------------|
----------------------|
----------------------| play 4 times
----------------------|
--7--7-7--7-7--7-5-9--|

Verse 1
E                                   B
As I was walkin down rubadub square (Riff A, see at bottom)
E                                           B
Not a chill to the window a little to the air (Riff A)
A            E         A                    E
From another direction she was caught in my eye
A              E         A                   E
It could be an illusion, but I might as well try
                B
..might as well try

Verse 2
E                                                   B
She had rings on her fingers and bells on her shoes (Riff A)
E                                                     B
And I could tell without asking she was into the blues (Riff A)
A                E        A               E
She wore scarlet begonias tucked into her curls
A             E           A              E       B
I knew right away she was not like other girls

Chorus
F#
Well I ain't never been right as I ain't never been wrong
   B           E                   A            E
As everthing works out the way it does in this song
F#
Cause once in a while you get shown in the light
       B                          A          E
In the strangest of places if you look at it right

solo
-----------------------------------------------------------------------|
-----------------------------------------------------------------------|
-----------------------------------------------------------------------|
--------------1-2-1--------------------3-4-3------------------6-7-6----|
------1---4-4-------4----------3---6-6-------6--------6---9-9-------9--|
--2-2----------------------4-4--------------------7-7------------------|


------------------------|
------------------------|
------------------------|
--9-7-6-----------------|
--------9-7-9-7--6-7-6--|
------------------------|


----------------------------7------|
--------------------------7----9b--|
--------------------6-8-9----------|
--------------6-7-9----------------|
--------6-7-9----------------------|
9-7--7-----------------------------|


------------7-9-11--11p9--12-11-9---------------|
-9h10--9-7-------------------------10-9p7----7--|
------------------------------------------------|
------------------------------------------------|
------------------------------------------------|


Verse 3 Same as above
It was the summer of love and I thank the stars above
Because the women took the lovin over me
And just to gain her trust, I bought a microbus
Because I sold off my personal property

A tie-dyed dress , she was a psychadelic mess
We toured to the north, south, east and west
We sold some mushroom tea,
Sold some ectacy,
Sold nitrus, opium, acid, herion and PCP
Now I hear the police coming after me
Now I hear the police coming after me
The one scarlet with the flowers in her hair,
She's got the police coming after me

Well there ain't nothing wrong with the way she moves
All scarlet begoinas and a touch of the blues
And there ain't nothin wrong with the love that's in her eyes
I had to learn the hard way just to let her  pass by.

-----------------4-------------------|
--------5-4----4---7------5-4--------|
--4---4------4----------4-----4---6--|
----4-----------------4---------7----|  play 3 times
-------------------------------------|
-------------------------------------|

-----------------------------------------|
-----------------------------------------|
-----------------1-----------------------|
--------2-1--------4------2-1------------| play 3 times and fade out
--2---2--------2--------2-----2---2h4-2--|
----2--------2--------2---------5--------|

Riff A
----------------------|
----------------------|
----------------------|
-------------6-7-6----|
------6--9-9-------9--|
--7-7-----------------|


Текст, аккорды и табулатура для песни "Scarlet Begonias", исполняет "Sublime".
Используемые в песне аккорды можно найти в разделе Как брать аккорды. Аккорды для шестиструнной гитары. Другие песни можно найти на нашем сайте, воспользовавшись алфавитным указателем вверху страницы.


 
Ошибка в тексте? Выделите ошибку и нажмите Ctrl+Enter