-------------------------------------------------------------------------------
			     Santeria Solo - Sublime
-------------------------------------------------------------------------------

Tabbed by: turtleman983
Email: [email protected]
Tuning: regular
  
e|---------------------------------------------------------------------------|
B|---------------------------------------------------------------------------|
G|--------------9-11-11-9-8—86-8-6-6p4---4---------------------------4h5h6--|
D|---------9-11-------------------------6---2-4p2---------------4h5h6--------|
A|--7-9/11----------------------------------------4-------2h3h4--------------|
E|--------------------------------------------------2h3h4--------------------|

e|---------9-----------------------------------------------------9-----------|
B|-5-5--12---12-----------------------------------------------11---9---11----|
G|--------------9-11-9----9-----------------------------------11-----9-11----|
D|---------------------11---11p9---------9----------10----10-----------------|
A|-------------------------------11-9h11---9-7-9/11----11--------------------|
E|---------------------------------------------------------------------------|

e|-9-------------------------------------------------------------------------|
B|---9-----------------------------------------------------------------------|
G|-----9-11-11p9----9----11----9---------------------------------------------|
D|---------------11---11----11-----------------------------------------------|
A|---------------------------------------------------------------------------|
E|---------------------------------------------------------------------------|


| /  slide up
|   slide down
| h  hammer-on
| p  pull-off


Текст, аккорды и табулатура для песни "Santeria", исполняет "Sublime".
Используемые в песне аккорды можно найти в разделе Как брать аккорды. Аккорды для шестиструнной гитары. Другие песни можно найти на нашем сайте, воспользовавшись алфавитным указателем вверху страницы.


 
Ошибка в тексте? Выделите ошибку и нажмите Ctrl+Enter