-----------------------------------------------------------------------------
                            Pool Shark - Sublime
-----------------------------------------------------------------------------
Tabbed by:Mikey Macias
Email:[email protected]
Tuning:Standard E,A,D,G,B,e

This is my first tab so if it sucks I'm sorry!
 
  Intro:
e|------------------------|
B|----6----------------6--|
G|----7-------6--x--5--7--|
D|----7-------7--x--5--7--|
A|-5--(5)-----7--x--3--5--|
E|----------5----x--------|
 
e|---------------5---------------------------------------------------------|
B|---6-------------6-------------------------------------------------------|
G|-----7-------------7-------6-----------6-------------7------------7------|
D|-------7----(7)------(7)-----7-----------7-------------8------------8----|
A|-5-------5-5-------------------7----(7)----7-------8-----8-----(8)----8--|
E|-------------------------5-------5-5---------(5)-6---------6-6-----------|
 
e|-------------------------------------------------------------------------|
B|----------------------------------------------------6-----------6--------|
G|------10-------------10------3------------3-----------6-----------6------|
D|---10----10-------10----10------4-----------4-----------6----(6)----6----|
A|-8----------8-8-8-----------------4----(4)----4-2/4-------4-4------------|
E|---------------------------2--------2-2----------------------------------|
 
e|----------------|           |-----------------------|
B|----------------|           |-11----11-11-11--------|
G|-9-9-9-x-8-8-8--| 3x's then |-11-11----------11-11--|
D|-9-9-9-x-9-9-9--|           |-11----------------11--|
A|-7-7-7-x-9-9-9--|           |--9------------------9-|
E|-------x-7-7-7--|           |-----------------------|
  

e|------------------------------------------------------------------------|
B|-----------------5-5-5-5-5-5-5-5----------------------------------------|
G|-6-6-6-6-6-6-6-6-6-6-6-6-6-6-6-6/7-7-7-7-7-7-7-7-6-6-6-6-6-6-6-6/-------|
D|-6-6-6-6-6-6-6-6-6-6-6-6-6-6-6-6/7-7-7-7-7-7-7-7-7-7-7-7-7-7-7-7/-------|
A|-4-4-4-4-4-4-4-4-4-4-4-4-4-4-4-4/5-5-5-5-5-5-5-5-7-7-7-7-7-7-7-7/-------|
E|-------------------------------------------------5-5-5-5-5-5-5-5/-------|
 
e|----------------------------------------|       
B|----------------------------------------|       
G|-7-7-7-7-7-7-7-7-10-10-10-10-10-10-10-10|       
D|-8-8-8-8-8-8-8-8-10-10-10-10-10-10-10-10|       
A|-8-8-8-8-8-8-8-8--8--8--8--8--8--8--8--8|       
E|-6-6-6-6-6-6-6-6------------------------|       
 
e|------------------------|           |----|
B|------------------------|           |-13-|
G|-11-11-11-x-10-10-10----| 3x's then |-13-|
D|-11-11-11-x-11-11-11----|           |-13-|
A|--9--9--9-x-11-11-11----|           |-11-|
E|----------x--9--9--9----|           |----|

Lyrics:

Lying in my plasic bed 
thinkin how things weren't so cool to me 
My baby likes to shoot pool 
I like lying naked in my bedroom 
Tying on the dinosaur 
tonight it used to be so cool 

Now I've got the needle 
and I can't shake but I can't breathe 
Take it away and I want more and more 
One day I'm gonna lose the war 

Lying in my plasic bed 
thinkin how things weren't so cool to me 
My baby likes to shoot pool 
I like lying naked in my bedroom 

Tying on the dinosaur 
tonight it used to be so cool 

Now I've got the needle 
and I can't shake 
but I can't breathe 
Take it away and but I want more and more 
One day I'm gonna lose the war


Текст, аккорды и табулатура для песни "Pool Shark", исполняет "Sublime".
Используемые в песне аккорды можно найти в разделе Как брать аккорды. Аккорды для шестиструнной гитары. Другие песни можно найти на нашем сайте, воспользовавшись алфавитным указателем вверху страницы.


 
Ошибка в тексте? Выделите ошибку и нажмите Ctrl+Enter