Band:   Sublime
Song:   Pawn Shop
Album:  Sublime
Tuning: Standard

  Introduction (Distortion)      4x
||----------------|----------------||
||----------------|----------------||
||*---------------|---------------*||
||*---------------|---------------*||
||--------10------|----------------||
||--10h12----~|~~~~~~~~~~~~~~~~||
  
  Solo                                                        3x
||----------------------||--------------------------------------||
||----------------------||--------------------------------------||
||----------------------||*------------------------------------*||
||-------------------12-||*--------------------------------*||
||-12h14-12----12-14----||-12h14-12-----------12/14----14p12-14-||
||----------15----------||----------15--12-15-------------------||

||----------------------------------------------------------|-
||----------------------------------------------------------|-
||-------------------------------------------12-------------|-
||--------------------------12---------12-14----14~~~~~~~~~-|-
||-12h14-12-----------12/14---14-12-14----------------------|-
||----------15--12-15---------------------------------------|-

-|-------------------------------------------------------|------------------
-|-------------------------------------------------------|-10/12-10-8-10-12-
-|----------12-------------------------------------12----|------------------
-|-12-12-14----12h14-12h14-12----------12—---12h14---(14)|------------------
-|----------------------------14-12-14-------------------|------------------
-|-------------------------------------------------------|------------------

-|-10-----------------------10----------------15-----------------15-------|-
-|-----10/12-10-8---8-10-12----12-10-12-15-17----17~~~~-15-15-17----15h17-|-
-|----------------9-------------------------------------------------------|-
-|------------------------------------------------------------------------|-
-|------------------------------------------------------------------------|-
-|------------------------------------------------------------------------|-

                                                                         3x
-|------------------------------------||-----------------------------------||
-|-15h17-151210h12------------------||-----------------------------------||
-|------------------12h14-------------||*---------------------------------*||
-|------------------------12h14-------||*---------------------------------*||
-|------------------------------12h14-||--------1010-------1010------------||
-|------------------------------------||--10-12------10-12------12-107-10-||
                                         ^^^^^^^^^^^^Palm-mute^^^^^^^^^^^^
  Verse                                  *also the Bass line for the song*    
||--7----7--||
||--8----7--|| 


Текст, аккорды и табулатура для песни "Pawn Shop", исполняет "Sublime".
Используемые в песне аккорды можно найти в разделе Как брать аккорды. Аккорды для шестиструнной гитары. Другие песни можно найти на нашем сайте, воспользовавшись алфавитным указателем вверху страницы.


 
Ошибка в тексте? Выделите ошибку и нажмите Ctrl+Enter