Song: Live at E's
Artist: Sublime
Album: 40 oz. To Freedom
Tabbed by: Dave Miller ([email protected])
http://www.basstabarchive.com/

This song is in dropped D tuning.

Intro

G|-----------------------------------------------|
D|*--5------5------3--------5------5-----3-------|
A|*----5------5------3---3----5------5-----------|
D|-------5------5------3--------5------5----3-3--|

G|-----------------------------------------------|
D|*--5------5------3--------5------5-7-8-10-/-12-|
A|*----5------5------3--------5------------------|
D|-------5------5------3-3------5----------------|

    
Verse

G|-----------------------------------------------|
D|*--5------5------3--------5------5-----3-------|
A|*----5------5------3--------5------5-----------|
D|-------5------5------3-3------5------5----3-3--|


Chorus

G|--------------------------|
D|*-------------------------|
A|*-------------------------|
D|---7-7-7-7--10-10-10--0---|


Eric's Rap Fill (Verse variation)

G|------------------------|
D|*------/8-8--7--5--3----|
A|*-----------------------|
D|------------------------|

Ending (after last chorus)

G|------------------------|
D|*-----------------------|
A|*-----------------------|
D|---1--2-/-14------------|


Текст, аккорды и табулатура для песни "Live At Es", исполняет "Sublime".
Используемые в песне аккорды можно найти в разделе Как брать аккорды. Аккорды для шестиструнной гитары. Другие песни можно найти на нашем сайте, воспользовавшись алфавитным указателем вверху страницы.


 
Ошибка в тексте? Выделите ошибку и нажмите Ctrl+Enter