**normal tuning **

Intro:
Gtr1
e|-------------------------
B|-x--x-x-10-x----x--x-x-x-
G|-x--x-x-11-x-13-x--x-x---
D|-------------14-x--x-x---
A|-------------------------
E|-------------------------

GtR2
e|-----------------------0----
B|-7-7-7---------9-9-x---0----
G|-7-7-7---7-----9-9-x--------
D|-7-7-7---7--h--9-9-x--------
A|-5-5---5---5/7---7----------
E|---------------------0---14

GTR1
e|-10-10-10-10-10-10-12-12-12--
B|-10-10----10-10-10-12-12-12-x
G|-11-11----11-11-11-13-13-13-x
D|-----------------------------
A|-----------------------------
E|-----------------------------

GTR2
e|------------------------------0-----
B|----------------9-9-x---------0-----
G|-7-7-----7-7---9-9-x---------------
D|-7-7-------7---9-9-x-----------0---
A|-5-5-5-5---7---7-7-x-x-7-5h7-----0-
E|-5------------0---------------------

VERSE-
GTR1
e|-------------------------12-12-12-12-
B|-10-10-x-x-10-10-x-10-10-12-12-12-12-
G|-10-10-x-x-10-10-x-10----13-13-13-13-
D|-11-11-x-x----11---11----------------
A|-------------------------------------
E|-------------------------------------

GTR2
e|----------------------
B|----------7-7-x-9-9-7-
G|-7-7-----7-7-x-9-9-7-
D|-7-7-----7-7-x-9-9-7-
A|-5-5-----------------
E|------x-x-------------

GTR1
e|-------------------p----
B|-7-7-7-7-9-x-9-9--97-7-
G|-7-7-7-7-9-x-9-9-997-7-
D|-7-7-7-7-9-x-9-9--97-7-
A|------------------------
E|------------------------

GTR2
e|-------------5-5---------x-x-5-5-
B|-x-9-9-7-7-x-7-7-x-x---x-x-x-7-7-
G|-x-9-9-7-7-x-7-7-x-x-9-x-x-x-7-7-
D|-x-9-9-7-7-x-----x-x-9-x---------
A|---------------------------------
E|---------------------------------

Cont through verse and verses
GTR1     Solo here
             P.M______________________________
e|-----------|-----------------------------------
B|---9-9-x-3-|-----------------------------------
G|-9-9-9-x-2-|-----2-4-2-5-4-2-2---2-------------
D|-9-9-9-----|-2-4---------------4---4-2-4-4-4-2-
A|-----------|-----------------------------------
E|-----------|-----------------------------------

  P.M.________
e|---------------------------x-x-x---------------------------
B|---------------------------x---x-------------0-------~-----
G|---------------------------x---x-------------x-------2-4b-2
D|-x-x-2-4-4-4-2-4-2---------------2h4-2---2h4-2-x-2-4-------
A|-------------------4-2-4-x-------------0-------------------
E|-----------------------------------------------------------

e|-------------------------------------------
B|-------5-5h7--10---------------------------
G|-4h5h6-----------9h11p9-------------------2
D|------------------------9b-9-2h4-2----h---
A|--------------------------------------2/4--
E|------------------------------------0------

e|-----------------------------5---------12----
B|-------------------------5h7---7-7/12b----12b
G|-----------2-4p3---2h4/6---------------------
D|-------2h4-------4---------------------------
A|-2h3h4---------------------------------------
E|---------------------------------------------

VERSE

GTR1
e|--------------------------------------------------------
B|-7-7--------7-------------------------------------------
G|-7-7-9-9-9b-7-9-7-7-7-x-7-6-9---------9-----------------
D|-7-7-9-9-0------7-7-7-x-----9-9-9---9---7-7-x-7---7-x-7-
A|-5-5-7-7--------------------------7-------------5-------
E|--------------------------------------------------------

e|---------------------------------------------0
B|----------------------------------------------
G|-------------------------9---9---9-9-----7-7--
D|-9-x---9---9-7-----7-------9---9------p--7-7--
A|-7-x-----7-----5-----7-9-------------75-5-5--
E|-----7-----------5----------------------------

e|----------------------------------
B|----------------------------------
G|-----7-----------9-------9--------
D|---7---7-7-9---9---9---9-----7-7-9
A|-5-----------7-------7-----5---5-7
E|----------------------------------

e|-----5-5-5-5/---------------
B|-----7-7-7-7/-9-------------
G|-----7-7-7----9-P.M________-
D|----------------------------
A|-7--------------7-7-7-7-7-5-
E|---x------------------------

Verse

GTR1
P.M_______________       __________
e|---------------------------------
B|---------------------------------
G|---------------------------------
D|---------------------------------
A|-7-5---5-7-5-5-5-7-7-x-7-7-5-7-7-
E|-----7---------------------------

GTR2
e|-10-10-10-10-10-10-10-10-10-12-12-12-12-12-12-12-12-
B|-10----------10-10-10-10-10-12-12-12-12-12-12-12-12-
G|-----------------------------------------------------
D|-----------------------------------------------------
A|-----------------------------------------------------
E|-----------------------------------------------------

Gtr1
P.M___
e|----------------
B|----------------
G|----------------
D|----------------
A|-5-5---5-5-5-5h7
E|-----5----------

Gtr2
e|-10-10-10-10-10-10-10-10-12-12-12-12-12-12-10-10
B|-10----------10-10-10-10-12-12-12---------------
G|----------------------11----13-13---------------
D|------------------------------------------------
A|------------------------------------------------
E|------------------------------------------------

GTR1
e|-5-5-5-5---------
B|-7-7-7-7-9-9-9-9-
G|---------9-9-9-9-
D|---------9-9-9-9-
A|-----------------
E|-----------------

GTR2
e|-------------------------
B|-------7-------------10--
G|---7---7-7-7-9-9--------9
D|-7-7-7---7-7-9-----------
A|-----------------7-7-----
E|-------------------------

GTR1
e|------------------------------
B|------------------------------
G|------------------------------
D|----------------h--9-9h11-11-9
A|-5-5-5-5-5-7-7-7/9------------
E|-----5------------------------

Guitar Solo

e|------------------~----------------------------------
B|----------9-------9--------------------~-------------
G|----9-11b------11----------9-----------9-11-11------
D|-11---------11------11-11---11-x-9h11-------11-9-9-9
A|-----------------------------------------------------
E|-----------------------------------------------------

e|------------------------------------------
B|------------------------------------------
G|--p---------------------------------------
D|-87-/10-7-x-x-------------5--------------
A|-------------------7-7-5h7---7-5-5-5-x-x-5
E|---------------7-9------------------------

e|-----------------------------------------------
B|-----------------------------------------------
G|-------------------------------------------h---
D|-----------7-5-x-6-6-~------------7-6-----7/9-7
A|-5-----5h7-----------7-7-0-x-5h7-----5-7------
E|---x-x-----------------------------------------

Outro:

GTR1
e|---12-12-10-x-10-x-10-10-10-12-12----x-14-x
B|-9-12-12-10-x-10-x-10----10-12-12----x-12-x
G|-9-----------------------11-13----13-x-13--
D|-9------------------------------------------
A|--------------------------------------------
E|--------------------------------------------

GTR2
e|-------------
B|-------------
G|-------------
D|-6h7-7-------slide pick up & down strings 5&6 
A|-------5-7---
E|-----------0-

 GTR1
e|-10----12-10----12-x-12------14-------12-14-14-14-10-x-x-x-x-
B|-10--------10----10-x-12---------x-x-x-12-12-12-12------------
G|----11-----11-11----------x-13----------13-13-13-13------------
D|---------------------------------------------------------------
A|---------------------------------------------------------------
E|---------------------------------------------------------------

GTR2
e|-------------------------------------------------------------16b----
B|--------------------------------------------------------------------
G|--------------------------------------------------------------------
D|--------------------------------------------------------------------
A|-x-x-x-x-x-x-x-x-x-x-x-x-x-x-x-x-x-x-x-x-x-x-x-x-x-x-------------7-7
E|-x-x-x-x-x-x-x-x-x-x-x-x-x-x-x-x-x-x-x-x-x-x-x-x-x-x-0-0-0-0--------

GTR2
e|-15b-------------------------------------------------
B|-------------~~--------------------------------------
G|-------------12-----------------------------h---~----
D|-------------------------------h--------9h11/12-11-11
A|-----7-7-x-7----7-x-7-x-0-7-7-9/11-9h11--------------
E|-----------------------------------------------------

GTR2
e|-------------------------------------------------------
B|-------------------------------------------------------
G|-------------------------------------------------------
D|-11-11-11-9h11-11p9-11-11-9-11-9---------9h11-9h11-9h11
A|---------------------------------11-9-11---------------
E|-------------------------------------------------------

GTR2
e|-----------------------------------
B|-------------------------------7-7-
G|-10-9-9-9-9--------------------7-7-
D|-------------------------------7-7-
A|------------9h11-9---9-7-7-7-7-5-5-
E|-------------------9---------------


Lyrics

Jailhouse gets empty.  rudy gets plenty. baton stick gets shorter
rudy gets taller.  can't fight against the youth cause we're strong
them are rude rude people.  can't fight against the resitance....




Текст, аккорды и табулатура для песни "Jailhouse", исполняет "Sublime".
Используемые в песне аккорды можно найти в разделе Как брать аккорды. Аккорды для шестиструнной гитары. Другие песни можно найти на нашем сайте, воспользовавшись алфавитным указателем вверху страницы.


 
Ошибка в тексте? Выделите ошибку и нажмите Ctrl+Enter