Song: Foreman Freestyle
Band: Sublime
Album: Sinsemilla
Tabbed by: Rob MacGuffie ([email protected])


 Main Part: Repeated through most of the song
 |--------------------------------------------|
 |----------------------------------------3-3-|
 |---0-1-0----3-3------------0-1-0----3-3-----|
 |-3-------3-------1-1-----3-------3----------|

 Variation:
 |-0----------0------------------|
 |---0----------0----------------|
 |-----1----------1------3-3-----|
 |-------3----------3--------1-1-|

 
 Walking with a pistol in my hand part:
 |------------------------------------------|
 |--------------------------7---7----7------|
 |---5---5------5---5-----------------------|
 |-3---3------3---3---3---5---5----5---5--3-|


 |----------------------------------|
 |-----3----------------------------|
 |---3-----3---------5--------------|
 |-1-----1---1-1---3---3-3--3-3-3-1-|


 |---------------------------------------|
 |--------------5-------7----------7-5-4-|
 |--------5------------------------------|
 |-3--3-3---3-3---3---5---5-5--5-5-------|


 |---------------------------------------------|
 |---3-----------------------------------------|
 |-----3--------3-1-0--------------5-----------|
 |-1-----1--1-1---------3-3-3-3--3---3--3/103-|

 After that, it goes into the main line again.

 |Key|
/ = Slide Up
 = Slide Down


Текст, аккорды и табулатура для песни "Foreman Freestyle", исполняет "Sublime".
Используемые в песне аккорды можно найти в разделе Как брать аккорды. Аккорды для шестиструнной гитары. Другие песни можно найти на нашем сайте, воспользовавшись алфавитным указателем вверху страницы.


 
Ошибка в тексте? Выделите ошибку и нажмите Ctrl+Enter