Title: Date Rape Solo
Arist: Sublime
Tabbed by Mueychacha
********************

/-slide
p-pull off
b-bend
r-release bend (in the beginning of the solo you're gonna have to hold the 10b12 on B, 

hit the 12 on high E, then release the bend on the B. Sounds harder than it is.)
-pinch harmonic
PM-palm mute

E|--------------------------12----------------------------------------------------|
B|--------8--p8--10b12------12r10--8--10p8-----8------------------------------|
G|---7/9----------------------------------------9-----9--7----7----------------|
D|------------------------------------------------------------------7b9r7---------|
A|-------------------------------------------------------------------------10-----|
E|--------------------------------------------------------------------------------|

                     |  PM--------------------PM  |
E|-------------------|----------------------------|-----------------------------|
B|-------------------|----------------------------|--8b10r8--7h8p7--------------|
G|-------------------|-------------------7--9--9--|-----------------7--9--------|
D|--7----------------|-------------7--9-----------|-----------------------------|
A|-----10--7--10--7--|------7--10-----------------|-----------------------------|
E|-------------------|--10------------------------|-----------------------------|

E|------------------------------------------------------------|
B|--8-----10p8------10p8------10p8-----10p8------10p8--10p8---|
G|-----9--------9---------9---------9--------9----------------| 
D|------------------------------------------------------------|
A|------------------------------------------------------------|
E|------------------------------------------------------------|

E|--------7---------7---------7--------7---------7----7------------------------|
B|--10b12----10b12-----10b12-----10b12----10b12----------12r10--8--10p8-----8--|
G|-----------------------------------------------------------------------9-----|
D|-----------------------------------------------------------------------------|
A|-----------------------------------------------------------------------------|
E|-----------------------------------------------------------------------------|

E|-----------------------------------------------|
B|--10b12r10--8----------------------------------|
G|---------------9--7--9--9--9--10--10--10----|
D|-----------------------------------------------|
A|-----------------------------------------------|
E|-----------------------------------------------|


Текст, аккорды и табулатура для песни "Date Rape (solo ver 2)", исполняет "Sublime".
Используемые в песне аккорды можно найти в разделе Как брать аккорды. Аккорды для шестиструнной гитары. Другие песни можно найти на нашем сайте, воспользовавшись алфавитным указателем вверху страницы.


 
Ошибка в тексте? Выделите ошибку и нажмите Ctrl+Enter