-------------------------------------------------------------------------------
			     Burritos - Sublime                                
-------------------------------------------------------------------------------
Tabbed by:Mr. Han
Email:Mr. [email protected]

Tuning:standard

e|---------------------------------------------------------------------------|
B|---------------------------------------------------------------------------|
G|----------------------5--7--------------------------------------5--7-------|
D|---------3--5-3--5/7---------------3--5--3--------3--5--3--5/7-------------|
A|-3h5---5---------------------3--5------------5----------------------------|
E|---------------------------------------------------------------------------|

e|---------------------------------------------------------------------------|
B|-6-------------------------------------------------------------------------|
G|---7p5-------5---------------------5--7-----------5--7--7-7p5---5----52/11|
D|-------5-5h7----5/3-----3---3-5/7-------5h7--7--7-------------7----7-------|
A|--------------------3h5---5------------------------------------------------|
E|---------------------------------------------------------------------------|

e|-10------------------------------------------------------------------------|
B|-----13--10-------------------------------------------------------10-10-10-|
G|------------12BRp10-----------------------------------------10-------------|
D|---------------------12-10h12-------10----------------------10-------------|
A|------------------------------10h12----108-----------10/12----12----------|
E|--------------------------------------------10-8h10-8----------------------|

e|---------------------------------------------------------------------------|
B|---------------------------------------------------------------------------|
G|-12~----------------------------------------------------------15---14~-----|
D|-----/17--0-10-10-10-12-----3-3-3-3-5-5-5-5-3h-5--5/7-10-12---------------|
A|---------------------------------------------------------------------------|
E|--------------------------5------------------------------------------------|

e|---------------------------------------------------------------------------|
B|---------------------------------------------------------------------------|
G|-14h15s12-12-10-12-9h10-------------------12h14p12p10-12-10----------------|
D|------------------------12h14-12p10-12----------------------14--12h14bR--|
A|---------------------------------------------------------------------------|
E|---------------------------------------11----------------------------------|

e|---------------------------------|
B|---------------------------------|
G|---------------------------------|
D|-12p11~--12-12/14--12-12-11-11---|
A|---------------------------------|
E|---------------------------------|


| /  slide up
|   slide down
| h  hammer-on
| p  pull-off
| ~  vibrato
| B  Full Bend
| BR Full Bend & Release
| b  1/2 Bend
| bR 1/2 Bend & Return
===============================================================================


Текст, аккорды и табулатура для песни "Burritos", исполняет "Sublime".
Используемые в песне аккорды можно найти в разделе Как брать аккорды. Аккорды для шестиструнной гитары. Другие песни можно найти на нашем сайте, воспользовавшись алфавитным указателем вверху страницы.


 
Ошибка в тексте? Выделите ошибку и нажмите Ctrl+Enter