Badfish by sublime

Intro: A, B, G with random picking (2x)
           A                  B                 G
e-----------5----------------7----------------3----------------
B-----------5----------------7----------------3--------------
G-----------6----------------8----------------4---------------
D-----------7----------------9----------------5----------------
A-----------7----------------9----------------5---------------
E-----------5----------------7----------------3--------------


Verses: A, B, G, A slow reggae strumming
         A             B               G              A
e----5--5--5--5----7--7--7--7-----3--3--3--3-----5--5--5--5----
B----5--5--5--5----7--7--7--7-----3--3--3--3-----5--5--5--5----
G----6--6--6--6----8--8--8--8-----4--4--4--4-----6--6--6--6----
D----7--7--7--7----9--9--9--9-----5--5--5--5-----7--7--7--7----
A--------------------------------------------------------------
E--------------------------------------------------------------

Repeat Intro: A, B, G w/ random picking

Solo: (slight distortion)

e-------------------------------------------------------------------
B-------------------------------------------------------------------
G-------------------------------------------------------------------
D--6/7--6/7--9b-------7--9--7--9--7-----------------------9--7----7-
A----------------7--9----------------9--7---------7--9--7-------9---
E-----------------------------------------7/8--7/8------------------

e---5---2-----------------------------------------------------------
B------------3---2-------2------------------------------------------
G----------------------4-------4b-----------------------------------
D-------------------------------------------------------------------
A-------------------------------------------------------------------
E-------------------------------------------------------------------


Repeat Verse: A, B, G, A slow reggae strumming


VERY easy song, one of Sublimes best.  Slightly different from the other badfish tabs around, but this one is the coolest.ILA
PS.CG4ever


Текст, аккорды и табулатура для песни "Bad Fish", исполняет "Sublime".
Используемые в песне аккорды можно найти в разделе Как брать аккорды. Аккорды для шестиструнной гитары. Другие песни можно найти на нашем сайте, воспользовавшись алфавитным указателем вверху страницы.


 
Ошибка в тексте? Выделите ошибку и нажмите Ctrl+Enter