Song: MR ROBOTO (bass tab)
 Band: STYX
 Tabbed by: FER MADRID
 Time signature: 4/4
 STANDARD TUNING


 0:00    0:36 (5x)Domo arigato Mr Roboto ... !
G|-------|-------|-----|------|-----|------|-----|------|-----|
D|-SYNTH-|*-----*|-----|------|-----|------|-----|------|-----|
A|-------|*-----*|-----|------|-----|------|-----|------|-----|
E|-------|1-----|-1---|------|-2---|------|-1---|------|-2---|
           1234    1234  1234   1234  1234   1234  1234   1234

                                           You're wondering ...
G|---------|---------|------------|-------------|--------------|
D|-----4---|-----4---|----4-----4-|----4--4-----|--------------|
A|---------|---------|------------|-------------|----4-3-------|
E|-2-------|-2-------|-2-----2----|-2--------6-4|-----------4-2|
   1 2 3 4   1 2 3 4   1  2  3  4   1  2  3  4    1  2   3  4 

                                         (2x)
G|------------|-------------|---------------|
D|*-----------|-------------|--------------*|
A|*-----------|-------------|----4-3-------*|
E|----2--2--2-|-2--2--2--6-4|-----------4-2-|
   1  2  3  4   1  2  3  4    1  2   3  4      
                                                           (4x)
G|------------|-------------|-------------|-------------------|
D|------------|-------------|-------------|*-----------------*|
A|------------|-------------|----4-3----4-|*-6-6-6-6-6-6-6-6-*|
E|----2--2--2-|-2--2--2--6-4|-------------|-------------------|
   1  2  3  4   1  2  3  4    1  2   3  4    1   2   3   4

  I've got a secret...                                             (3x)
G|----------------|----------------|----------------|-----------------|
D|*---------------|----------------|----------------|----------------*|
A|*6-6-6-6-6-6-6-6|-6-6-6-6-6-6-6-6|-4-4-4-4-4-4-4-4|-4-4-4-4-4-4-5-5*|
E|----------------|----------------|----------------|-----------------|
   1   2   3   4    1   2   3   4    1   2   3   4    1   2   3   4

G|----------------|----------------|----------------|----------------|
D|----------------|----------------|----------------|----------------|
A|-6-6-6-6-6-6-6-6|-6-6-6-6-6-6-6-6|-4-4-4-4-4-4-4-4|-4-4-4-4-4---4--|
E|----------------|----------------|----------------|----------------|
   1   2   3   4    1   2   3   4    1   2   3   4    1   2   3   4

G|----------------|----------------|----------------|-----------------|
D|*---------------|----------------|----------------|----------------*|
A|*2---2---2---2--|-2---2---2-2-2-2|-6-6-6-6-6-6-6-6|-6-6-6-6-6-6-6-6*|
E|----------------|----------------|----------------|-----------------|
   1   2   3   4    1   2   3   4    1   2   3   4    1   2   3   4

  I'm not a robot...                                               (3x)
G|----------------|----------------|----------------|-----------------|
D|*---------------|----------------|----------------|----------------*|
A|*6-6-6-6-6-6-6-6|-6-6-6-6-6-6-6-6|-4-4-4-4-4-4-4-4|-4-4-4-4-4-4-5-5*|
E|----------------|----------------|----------------|-----------------|
   1   2   3   4    1   2   3   4    1   2   3   4    1   2   3   4

G|----------------|----------------|----------------|----------------|
D|----------------|----------------|----------------|----------------|
A|-6-6-6-6-6-6-6-6|-6-6-6-6-6-6-6-6|-4-4-4-4-4-4-4-4|-4-4-4-4-4---4--|
E|----------------|----------------|----------------|----------------|
   1   2   3   4    1   2   3   4    1   2   3   4    1   2   3   4

G|----------------|----------------|----------------|----------------|
D|----------------|----------------|----------------|----------------|
A|-2---2---2---2--|-2---2---2-2-2-2|-6-6-6-6-6-6-6-6|-6-6-6-6-6-6-6-6|
E|----------------|----------------|----------------|----------------|
   1   2   3   4    1   2   3   4    1   2   3   4    1   2   3   4

  I need control...
G|----------------|----------------|----------------|----------------|
D|----------------|----------------|----------------|----------------|
A|-2---2---2---2--|-2---2---2---2--|-6-6-6-6-6-6-6-6|-6---R-E-S-T----|
E|----------------|----------------|----------------|-------------6-4|
   1   2   3   4    1   2   3   4    1   2   3   4    1   2   3   4

                                                         (2x)
G|--------------|-------------|-------------|---------------|
D|--------------|*------------|-------------|--------------*|
A|----4-3-------|*------------|-------------|----4-3-------*|
E|-----------4-2|-----2--2--2-|-2--2--2--6-4|-----------4-2-|
   1  2   3  4     1  2  3  4   1  2  3  4    1  2   3  4

                                                          (12x)
G|------------|-------------|-------------|-------------------|
D|------------|-------------|-------------|*-----------------*|
A|------------|-------------|----4-3----4-|*-6-6-6-6-6-6-6-6-*|
E|----2--2--2-|-2--2--2--6-4|-------------|-------------------|
   1  2  3  4   1  2  3  4    1  2   3  4    1   2   3   4

                                                                   (6x)
G|----------------|----------------|----------------|-----------------|
D|*---------------|----------------|----------------|----------------*|
A|*6-6-6-6-6-6-6-6|-6-6-6-6-6-6-6-6|-4-4-4-4-4-4-4-4|-4-4-4-4-4-4-4-4*|
E|----------------|----------------|----------------|-----------------|
   1   2   3   4    1   2   3   4    1   2   3   4    1   2   3   4

G|----------------|----------------|----------------|-----------------|
D|----------------|----------------|----------------|-----------------|
A|-2---2---2---2--|-2---2---2-2-2-2|-6-6-6-6-6-6-6-6|-6-6-6-6-6-6-6-6-|
E|----------------|----------------|----------------|-----------------|
   1   2   3   4    1   2   3   4    1   2   3   4    1   2   3   4

G|----------------|----------------|----------------|----------------|
D|----------------|----------------|----------------|----------------|
A|-2---2---2---2--|-2---2---2---2--|-2---2---2---2--|-2---2---2---2--|
E|----------------|----------------|----------------|----------------|
   1   2   3   4    1   2   3   4    1   2   3   4    1   2   3   4

                                     The problem's... (15x)
G|----------------|-------------R---|--R---------R--------|
D|----------------|-------------E---|*-E---6-----E---6---*|
A|-6-6-6-6-6-6-6-6|-6-6-6-6-6---S---|*-S---------S-------*|
E|----------------|-------------T---|--T------4--T------4-|
   1   2   3   4    1   2   3   4      1   2     3   4  

G|-R-------------|------|------|----------3--|--------------|
D|-E--6----------|------|------|------------6|--------------|
A|-S--------4-6--|------|------|-------------|----4-3-------|
E|-T----4-------4|------|------|-------------|-----------4-2|
   1  2   3   4    1234   1234   1  2  3  4    1  2   3  4 

                                         (2x)
G|------------|----------3--|---------------|
D|*-----------|------------6|--------------*|
A|*-----------|-------------|----4-3-------*|
E|----2--2--2-|-2--2--2-----|-----------4-2-|
   1  2  3  4   1  2  3  4    1  2   3  4  

                                         I'm Kilroy! (6x)
G|------------|----------3--|-------------|-------------| 
D|*-----------|------------6|-------------|*-----------*|
A|*-----------|-------------|----4-3----4-|*-6--6--REST*|
E|----2--2--2-|-2--2--2-----|-------------|-------------|
   1  2  3  4   1  2  3  4    1  2   3  4    1  2  3  4


ANY COMMENTS AT [email protected]


Текст, аккорды и табулатура для песни "Mr Roboto", исполняет "Styx".
Используемые в песне аккорды можно найти в разделе Как брать аккорды. Аккорды для шестиструнной гитары. Другие песни можно найти на нашем сайте, воспользовавшись алфавитным указателем вверху страницы.


Слушать онлайн Mr. Roboto


StyxMr. Roboto на Яндекс.Музыке


 
Ошибка в тексте? Выделите ошибку и нажмите Ctrl+Enter