Band: Strung Out
Song: Reason To Believe
Album: Twisted By Design

Tabbed by: Shaun McDonald     [email protected]

Tune down one full step

Intro:

F|----------------|----------------|
C|----------------|----------------|  3X
G|----2-0-----0---|----2-0---0-2---|
D|0-3-------3---0-|--3-----3-------|

F|----------------|----------------|
C|----------------|----------------|
G|----2-0-----0---|----2.----------|
D|0-3-------3---0-|--3-------------|

F|----------------|----------------|
C|----------------|----------------|  4X
G|----2-0-----0---|----2-0---0-2---|
D|0-3-------3---0-|--3-----3-------|


Verse:

F|----------------|----------------|----------------|----------------|
C|----------------|----------------|----------------|----------------|  2X
G|----------------|--------5-5-5-5-|----------------|--------2-2-2-2-|
D|0-0-0-0-3-3-3-3-|2-2-2-2---------|0-0-0-0-3-3-3-3-|2-2-2-2---------|


Interlude 1:

F|----------------|----------------|
C|----------------|----------------|  2X
G|----2-0-----0---|----2-0---0-2---|
D|0-3-------3---0-|--3-----3-------|


Verse


Chorus:

F|----------------|----------------|----------------|----------------|
C|----------------|----------------|----------------|----------------|
G|0-0-0-0-3-3-3-3-|2-2-2-2---------|0-0-0-0---------|3-3-3-3---------|
D|----------------|--------3-3-3-3-|--------1-1-1-1-|--------0-0-0-0-|

F|----------------|----------------|----------------|----------------|
C|----------------|----------------|----------------|----------------|
G|0-0-0-0-3-3-3-3-|2-2-2-2---------|----------------|2-2-2-2---------|
D|----------------|--------3-3-3-3-|1-1-1-1-1-1-1-1-|--------3-3-1-1-|


Interlude 2:

F|----------------|----------------|
C|----------------|----------------|
G|----------------|----------------|
D|0---------------|0---------------|


Verse


Bridge:

F|----------------|----------------|----------------|----------------|
C|----------------|----------------|----------------|----------------|
G|----------------|----------------|----------------|----------------|
D|5---5-3-5---5-3-|5---5-3-5---1---|0-0-0-0-0-0-0-0-|0-0-0-0-0-0-0-0-|

F|----------------|----------------|----------------|----------------|
C|----------------|----------------|----------------|----------------|
G|----------------|----------------|----------------|----------------|
D|5---5-3-5---5-3-|5---5-3-5-5-5-5-|7---7-5-7---7-5-|7---7-5-7-7-7-7-|


Solo:

F|----------------|----------------|----------------|----------------|
C|2-2-2-2-5-5-5-5-|4-4-4-4---------|2-2-2-2---------|5-5-5-5---------|
G|----------------|--------5-5-5-5-|--------3-3-3-3-|--------2-2-2-2-|
D|----------------|----------------|----------------|----------------|

F|----------------|----------------|----------------|----------------|
C|2-2-2-2-5-5-5-5-|4-4-4-4---------|----------------|----------------|
G|----------------|--------5-5-5-5-|3-3-3-3-3-3-3-3-|2-2-2-2-0-------|
D|----------------|----------------|----------------|----------3-2-0-|


Interlude 1


Chorus


Outro:

F|----------------|----------------|
C|----------------|----------------|
G|----------------|----------------|
D|0---------------|0.--------------|


Текст, аккорды и табулатура для песни "Reason To Believe", исполняет "Strung Out".
Используемые в песне аккорды можно найти в разделе Как брать аккорды. Аккорды для шестиструнной гитары. Другие песни можно найти на нашем сайте, воспользовавшись алфавитным указателем вверху страницы.


Слушать онлайн Reason To Believe


Strung OutReason To Believe на Яндекс.Музыке


 
Ошибка в тексте? Выделите ошибку и нажмите Ctrl+Enter