Tabbed By:emesk8rbk
The Strokes
This is a great song from the Strokes. I think this is pretty accurate,
try to get the rhythm of the song. 

Tablature explanation:
h = hammer on
p = pull off
^ = bend full
b = bend half
r = release bend
/ = slide up
 = slide down

Reptilia from cd Room on Fire

E|--------------------------------------------|
B|--33-3----33-3-----------3--------3---------|
G|------42------42---11-1-4---11-1-4----------|
D|--------------------------------------------|   Riff 1
A|--------------------------------------------|
E|--------------------------------------------|


E|--------------------------------------------|
B|-1515-1414-1212-1414-1212-1414-1010-1515----|
G|-1616-1414-1212-1414-1212-1414-1111-1616----|   Chorus  
D|--------------------------------------------|    
A|--------------------------------------------|
E|--------------------------------------------|

Solo:
        X3
E|--4--------------4--------------------------|
B|---7575-5---------7575-5--------------------|
G|-------7-76464----------7-764---------------|
D|--------------------------------------------|
A|--------------------------------------------|           
E|--------------------------------------------|       

E|4h7-7-4h7h5--7/10-7-4h7h5--9/12^-7-4h7h5--9/12^-7-4h7h5|
B|-------------------------------------------------------|
G|-------------------------------------------------------|
D|-------------------------------------------------------|
A|-------------------------------------------------------|
E|-------------------------------------------------------|

E|--4-----------------------------------------|
B|---7575-5-----------------------------------|
G|-------7-76464------------------------------|
D|--------------------------------------------|
A|--------------------------------------------|           
E|--------------------------------------------|      




Riff 1
Chorus
Solo
Riff 1
Chorus

Hey if you have any updates on this song email me.
This is my first song i tabbed out, and i think it sounds pretty good.
If you want to learn other songs, from their new cd email me.  [email protected]


Текст, аккорды и табулатура для песни "Reptilia", исполняет "Strokes".
Используемые в песне аккорды можно найти в разделе Как брать аккорды. Аккорды для шестиструнной гитары. Другие песни можно найти на нашем сайте, воспользовавшись алфавитным указателем вверху страницы.


 
Ошибка в тексте? Выделите ошибку и нажмите Ctrl+Enter