SONG: New York City Cops
ARTIST: The Strokes
ALBUM: Is This It
TRACK: 9
TABBED BY: Chris Carswell
THIS TAB IS MY OWN WORK

MAIN RIFF (0:16)
e-----------------------------------
B-----------------------------------
G-----------------------------------
D-----------------------------------
A-----------------------------------
E-5-5-5-5-5-5-5-5-3---0---3---0---3-

ENDING (0:47)
e-----------------------------------
B-----------------------------------
G-----------------------------------
D-----------------------------------
A-----------------------------------
E-5-5-5-5-5-5-5-5-7---0---3---0---3-

PRE-CHORUS A(0:51)
e-----------------------------------------------------
B-14-14-14-14-14-14-14-14-12/14-1414-14-12/14-1414-14-
G-14-14-14-14-14-14-14-14-12/14-1414-14-12/14-1414-14-
D-----------------------------------------------------
A-12-12-12-12-12-12-12-12-10/12-1212-12-10/12-1212-12-
E-----------------------------------------------------

PRE-CHORUS B(0:56)
e-----------------------------------------------------
B-12-12-12-12-12-12-12-12-10/12-1212-12-10/12-1212-12-
G-12-12-12-12-12-12-12-12-10/12-1212-12-10/12-1212-12-
D-----------------------------------------------------
A-10-10-10-10-10-10-10-10--8/10-1010-10--8/10-1010-10-
E-----------------------------------------------------

PRE-CHORUS C(1:01)
e-----------------------------------------------------
B-----------------------------------------------------
G-11-11-11-11-11-11-11-11--9/11-1111-11--9/11-1111-11-
D-12-12-12-12-12-12-12-12-10/12-1212-12-10/12-1212-12-
A-12-12-12-12-12-12-12-12-10/12-1212-12-10/12-1212-12-
E-10-10-10-10-10-10-10-10--8/10-1010-10--8/10-1010-10-

PRE-CHORUS D(1:05)
e-------------------------------------------------
B-------------------------------------------------
G-13-13-13-13-13-13-13-13-13-13-13-13-13-13-13-13-
D-14-14-14-14-14-14-14-14-14-14-14-14-14-14-14-14-
A-14-14-14-14-14-14-14-14-14-14-14-14-14-14-14-14-
E-12-12-12-12-12-12-12-12-12-12-12-12-12-12-12-12-

PRE-CHORUS E(1:09)
e-------------------------------------
B-------------------------------------
G-12----12----12-12-12-12-12-12-12-12-
D-12----12----12-12-12-12-12-12-12-12-
A-10----10----10-10-10-10-10-10-10-10-
E-------------------------------------

CHORUS(1:14)  play this twice
e--------------------------------------------------
B---8--8--8--8--8--8--8--8--8--8--8--8--8--8--8--8-
G---9--9--9--9--9--9--9--9-10-10-10-10-10-10-10-10-
D--10-10-10-10-10-10-10-10-10-10-10-10-10-10-10-10-
A--------------------------------------------------
D--------------------------------------------------

SOLO(1:32)
e----------------------------10b14---8---7h10-7---7h87h87h87h8-7-
B-10b12---10b11--8-10b11-8------------10--------8----------------
G---------------9---------9--------------------------------------
D----------------------------------------------------------------
A----------------------------------------------------------------
E----------------------------------------------------------------

e-8----10----8----10----8-----7---10---7---10---7---
B---10----10---10----10---10----8----8---8----8---8-
G---------------------------------------------------
D---------------------------------------------------
A---------------------------------------------------
E---------------------------------------------------

e-8----10----8----10----8-----7---10---7---10---7-8-
B---10----10---10----10---10----8----8---8----8-----
G---------------------------------------------------
D---------------------------------------------------
A---------------------------------------------------
E---------------------------------------------------

MAIN RIFF(1:50)

REST(1:58)

MAIN RIFF WITH BRIDGE(2:03)
BRIDGE play twice
e--------------------------------------
B-5--5--5--5--5--5--5--5---8--5-8--5-8-
G-7b-7b-7b-7b-7b-7b-7b-7b--7--4-7--4-7-
D--------------------------------------
A--------------------------------------
e--------------------------------------

BRIDGE B(2:11)
e-----------------------------------------------------------
B-13-10--1313-10---13-10--1313-10---5--5--5--5--5--5--5--5--
G-12--9--1212--9---12--9--1212--9---7b-7b-7b-7b-7b-7b-7b-7b-
D-----------------------------------------------------------
A-----------------------------------------------------------
E-----------------------------------------------------------
PRE-CHORUS A(2:21)
PRE-CHORUS B(2:25)
PRE-CHORUS C(2:29)
PRE-CHORUS D(2:34)
PRE-CHORUS A(2:38)
PRE-CHORUS B(2:42)
PRE-CHORUS C(2:48)
PRE-CHORUS D(2:52)
PRE-CHORUS E(2:56)
CHORUS(3:00)


Текст, аккорды и табулатура для песни "Nyc Cops", исполняет "Strokes".
Используемые в песне аккорды можно найти в разделе Как брать аккорды. Аккорды для шестиструнной гитары. Другие песни можно найти на нашем сайте, воспользовавшись алфавитным указателем вверху страницы.


 
Ошибка в тексте? Выделите ошибку и нажмите Ctrl+Enter