The Strokes
12:51
Room On Fire

Intro
e--7------------7------------------------8--8--8--8--8--8--8--8--
b--9------------9-----------9------------8--8--8--8--8--8--8--8--
g--9------------9-----------9------------9--9--9--9--9--9--9--9--
D--9------------9-----------9------------10-10-10-10-10-10-10-10-
A---------------------------7------------10-10-10-10-10-10-10-10-
E----------------------------------------------------------------

-7--7--7--7--7--7--7--7--8--8--8--8--8--8--8--8--7--7--7--7--7--7--7--7-|
-9--9--9--9--9--9--9--9--8--8--8--8--8--8--8--8--9--9--9--9--9--9--9--9-|
-9--9--9--9--9--9--9--9--9--9--9--9--9--9--9--9--9--9--9--9--9--9--9--9-|
-9--9--9--9--9--9--9--9--10-10-10-10-10-10-10-10-9--9--9--9--9--9--9--9-|
-7--7--7--7--7--7--7--7--10-10-10-10-10-10-10-10-7--7--7--7--7--7--7--7-|
------------------------------------------------------------------------|

Verse
Guitar 1                              repeat
e---------------------------------------------------------------------
b--9--7----7h9----------7----7-------------12--9-----9---12---9-----9-
g-------9--------9---8-----9----9--8---6----------11-------------11---
D---------------------------------------------------------------------
A---------------------------------------------------------------------
E---------------------------------------------------------------------

-----------------------------------------------------------------------------
--12--9-------9------9-----9---12--9-----9--12--9-----9--12--9----9---9---12-
---------11------9------11------------11-----------11----------11---9---11---
-----------------------------------------------------------------------------
-----------------------------------------------------------------------------
-----------------------------------------------------------------------------
play twice

Guitar 2
e------------------------------------------------------------------
b------------------------------------------------------------------
g--1-1-1-1-1-1-1-1-8-8-8-8-8-8-8-8-6-6-6-6-6-6-6-6-5-5-5-5-5-5-5-5-
D--2-2-2-2-2-2-2-2-9-9-9-9-9-9-9-9-7-7-7-7-7-7-7-7-6-6-6-6-6-6-6-6-
A--2-2-2-2-2-2-2-2-9-9-9-9-9-9-9-9-7-7-7-7-7-7-7-7-6-6-6-6-6-6-6-6-
E--0-0-0-0-0-0-0-0-7-7-7-7-7-7-7-7-5-5-5-5-5-5-5-5-4-4-4-4-4-4-4-4-

----------------------------------------------------------------
----------------------------------------------------------------
----------------------------------------------------------------
-14-14-14-14-14-14-14-14-14-11-11-11-11-9--9--9--9--14-14-14-14-
-14-14-14-14-14-14-14-14-14-11-11-11-11-9--9--9--9--14-14-14-14-
-12-12-12-12-12-12-12-12-12-9--9--9--9--7--7--7--7--12-12-12-12-

-------------------------------------|
-------------------------------------|
-------------------------------------|
-14-14-14-14-11-11-11-11-9--9--9--9--|
-14-14-14-14-11-11-11-11-9--9--9--9--|
-12-12-12-12-9--9--9--9--7--7--7--7--|
play twice

Chorus
Guitar 1
e-----------------12-10--------------------------12-10--------
b--10-12-9-10-----------13-12-----10-12-9-10-----------13-12--
g-------------------------------------------------------------
D-------------------------------------------------------------
A-------------------------------------------------------------
E-------------------------------------------------------------

-12----10------------------12-10------------------------12-10---------|
----10----10-12-10-13-10----------13-12---10-12-9-10-----------13-12--|
----------------------------------------------------------------------|
----------------------------------------------------------------------|
----------------------------------------------------------------------|
----------------------------------------------------------------------|

Guitar 2
e--5-5-5-5-5-5-5-5-5-5-5-5-5-5-5-5-7-7-7-7-7-7-7-7-7-7-7-7-7-7-7-7-|
b--5-5-5-5-5-5-5-5-5-5-5-5-5-5-5-5-9-9-9-9-9-9-9-9-9-9-9-9-9-9-9-9-|
g--5-5-5-5-5-5-5-5-5-5-5-5-5-5-5-5-9-9-9-9-9-9-9-9-9-9-9-9-9-9-9-9-|
D--7-7-7-7-7-7-7-7-7-7-7-7-7-7-7-7-9-9-9-9-9-9-9-9-9-9-9-9-9-9-9-9-|
A--7-7-7-7-7-7-7-7-7-7-7-7-7-7-7-7-7-7-7-7-7-7-7-7-7-7-7-7-7-7-7-7-|
E--5-5-5-5-5-5-5-5-5-5-5-5-5-5-5-5---------------------------------|

thats all. i think its quite accurate, the verse might be slightly out but it
gives u a gud idea. plz say ne comments
thx


Текст, аккорды и табулатура для песни "12 51", исполняет "Strokes".
Используемые в песне аккорды можно найти в разделе Как брать аккорды. Аккорды для шестиструнной гитары. Другие песни можно найти на нашем сайте, воспользовавшись алфавитным указателем вверху страницы.


 
Ошибка в тексте? Выделите ошибку и нажмите Ctrl+Enter