Stroke 9- Kick Some Ass
album- Jay & Silent Bob Soundtrack
tabbed by- alex
tuning- standard 
Guitar 1- Lead Guitar
Guitar 2- Rhythm Guitar 

repeat every part as necessary

Intro
Guitar 1
E-----------------------------------------------------
B--7-7-7-7-----7-7-7-7-----78-10-78-10-10h12-10-8---
G-----------------------------------------------------
D-----------------------------------------------------
A-----------------------------------------------------
E-----------------------------------------------------

Intro
Guitar 2
E-----------------------
B-----------------------
G--7-7--7-7-------------
D--7-7--7-7--5-5--5-5---
A--5-5--5-5--5-5--5-5---
E------------3-3--3-3---

Verse (palm muted)     
Guitar 1                 
E---------------------------------|----------------
B---------------------------------|----------------
G-------------------------4-------|--7-------------
D------4---4------------4---4-----|--7(let ring)---
A--5-5---5---5-0------5---------5-|--5-------------
E----------------3------------3---|----------------

Verse
Guitar 2
E------------------------------------------
B------------------------------------------
G--7-7----4-4--------7-7----4-4------6-7---
D--7-7----4-4----5-7-7-7----4-4----7-6-7---
A--5-5----2-2----5-7-5-5----2-2----7-4-5---
E----------------3-5---------------5-------

Before Chorus
Both Guitars
E---------------------------
B---------------------------
G---------------------------
D---------------------------
A--9---9/5-5--512-12/5-5---
E---------------------------

Chorus
Guitar 1
E-----------------------------------------------------
B--7-7-7-7-----7-7-7-7-----78-10-78-10-10h12-10-8---
G-----------------------------------------------------
D-----------------------------------------------------
A-----------------------------------------------------
E-----------------------------------------------------

Guitar 2
E-----------------------
B-----------------------
G--7-7--7-7-------------
D--7-7--7-7--5-5--5-5---
A--5-5--5-5--5-5--5-5---
E------------3-3--3-3---

Calm Part
Guitar 1
E--------------------------3---------
B------------------------3---3-------
G------7-------6-------0-------0-----
D----7---7---7---7---0-----------0---
A--5-------0-------------------------
E------------------3-----------------

Guitar 2 (very lightly)
E--------------
B--------------
G--7-----------
D--7---7---5---
A--5---7---5---
E------5---3---

Before Solo

Guitar 1
E--2/14---
B---------
G---------
D---------
A---------
E---------

Guitar 2- progressively let go of palm mute 
E--------------------
B--------------------
G--------------------
D--5-5-5-5-5-5-5-5---
A--5-5-5-5-5-5-5-5---
E--3-3-3-3-3-3-3-3---

Solo
Guitar 1
E--14-14------------14-14------------------------------------
B-------10-10-10-10-------13------x-15-x-12-12---------------
G----------------------------x-12--------------12-12-12-12---
D------------------------------------------------------------
A------------------------------------------------------------
E------------------------------------------------------------

Guitar 2- play chorus

Outro- play the rhythm guitar part for the “Calm Part” but play loudly.

thats it.  its actually a pretty easy song to play. any comments or questions email or IM me at [email protected]  enjoy.


Текст, аккорды и табулатура для песни "Kick Some Ass", исполняет "Stroke 9".
Используемые в песне аккорды можно найти в разделе Как брать аккорды. Аккорды для шестиструнной гитары. Другие песни можно найти на нашем сайте, воспользовавшись алфавитным указателем вверху страницы.


 
Ошибка в тексте? Выделите ошибку и нажмите Ctrl+Enter