Location: Season of Change - http://www.sci.fi/~jnevala/stratovarius/


STRATOVARIUS - THE HILLS HAVE EYES (From Twilight Time)
Music&Words By: Timo Tolkki/Toumo Lassila

Transcribed By: Niclas Buss 
email: [email protected]
			          
Please Mail me if you find mistakes!

Tune Down 1/2 step !
				      x2			  x2
E-------------------------------------------------------12-11----------------------|
B-----------------|----------------------|---------------------------|-------------------|
G--Keyboard-intro-|----------------------|---------------------------|-------------------|
D----(53-sec)-----|-11------------9--8---|-11------------9--8--------|--11~~-------------|
A-----------------|--9---10---7---7--6---|--9---10---7---7--6--------|---9~~-------------|
E-------------------------8---5------------------8---5-----------------------------------|

									     Riff 1
E----------------------------------------------------------------------------------------|
B---------------------------------------------------------------------------|------------|
G---------------------------------------------------------------------------|*-----------|
D----------4---------------A.H.-----------4---------------------------------|*----4------|
A--4----------4-5---5-4-2--4--2-0------------4-5---5-4-2-4-4-2-2-0-0-------|---------4-5|
E--2--2-2---2-----2---------------4--2-2---2-----2-------------------4-4-----2-2---2----|
        pm  pm    pm		         pm  pm    pm	   pm..............|     pm  pm

						       x3
E----------------------------------------------------------------------------------------|
B---------------------------------------------------------|------------------------------|
G--------------------------------------------------------*|------------------------------|
D---------A.H.-----------4-------------------------------*|--4----------------4-------4--|
A---5-4-2--4--2-0------------4-5---5-4-2-4-4-2-2-0-0------|--2---4--5--------------------|
E-2---------------4--2-2---2-----2-------------------4-4---------2--3---2-2-2---2-2-2----|
 pm                   pm  pm    pm      pm..............|              pm....| pm....|    

								      x2 Verse 1
E----------------------------------------------------------------------------------------|
B--------------------------------------------------------------|--------|----------------|
G--------------------------------------------------------------|-Riff-1-|*---------------|
D--------4-------4----4----------------------------------------|--------|*-------------4-|
A---------------------2---4--5---7-----------------7-----A.H.--|--------|--4~------------|
E--2-2-2---2-2-2----------2--3---5-5-5-5-5-5-5-5-5-5--5-0-3----------------2~------2-2---|
 pm.....| pm....|                 pm..............|    				     pm
							      x2  Bridge
E----------------------------------------------------------------------------------------|
B---------------------------------------------------------------|------------------------|
G--------------------------------------------------------------*|------------------------|
D---------------A.H.-----------4-------------------------------*|--4----------------4----|
A---4-5---5-4-2--4--2-0------------4-5---5-4-2-4-4-2-2-0-0------|--2---4--5--------------|
E-2-----2---------------4--2-2---2-----2-------------------4-4---------2--3---2-2-2---2-2|
 pm    pm                   pm  pm    pm      pm..............|              pm....| pm..|
									   x2
E----------------------------------------------------------------------------------------|
B-------------------------------------------------------------------|--------|-----------|
G-------------------------------------------------------------------|-Riff-1-|--Verse-2--|
D---4--------4-------4----4-----------------------------------------|--------|-----------|
A-------------------------2---4--5---7-------------------7-----A.H.-|--------|-----------|
E-2----2-2-2---2-2-2----------2--3---5-5-5-5-5-5-5-5-5-5-5--5-0-3------------------------|
pm    pm....| pm....|                 pm................|

            Riff 2		     Chorus
E----------------------------------------------------------------------------------------|
B---------|-----------------------|------------------------------------------------------|
G--Bridge-|-----------------------|------------------------------------------------------|
D---------|------4------9--7--6---|--7-7--6-----6--7-6-4-6---7-7--6----------------------|
A---------|----4---3-0--7--5--4---|--5-5--4-4-4-4--5-4-2-4---5-5--4-4-4-4--4-4-4--4-4-4--|
E------------2---------------------------------------------------------------------------|
					   pm..|                   pm..|  pm..|  pm..|  

E----------------------------------------------------------------------------------------|
B----------------------------------------------------------------------------------------|
G----------------------------------------------------------------------------------------|
D------------------------------4------6-----6-7-6-4-6----7-7--6-----6--7-6-4-6---7-7--6--|
A-4-4-4--4-4-4--4-4-4--4-4-4---2------4-4-4-4-5-4-2-4----5-5--4-4-4-4--5-4-2-4---5-5--4-4|
E----------------------------------------------------------------------------------------|
 pm..|  pm..|  pm..|  pm..|            pm..|		         pm..|                 pm

E----------------------------------------------------------------------------------------|
B----------------------------------------------------------------------------------------|
G----------------------------------------------------------------------------------------|
D-------------------------------------------------4-------2------------------------------|
A-4-4--4-4-4--4-4-4--4-4-4--4-4-4--4-4-4--4-4-4---2-2-2-2-0--6-------5--4-------5-2-4-5--|
E------------------------------------------------------------4-4-4-4-3--2-2-2-2-3-0-2-3--|
 pm   pm..|  pm..|  pm..|  pm..|  pm..|  pm..|     pm....|    pm....|    pm....|

		 Guitar Solo
E-----------------------------------------------------10-9--/12--10p9h10p9--9-10-9-------|
B-----------|----------------------------------------------------------------------12-10-|
G-----------|--/7--6--4------------------------------------------------------------------|
D-----------|------------7--5--4--5-4----------------------------------------------------|
A-4-----4---|-------------------------7-5-4----------------------------------------------|
E-2-2-2-2-----------------------------------7-5-3-2--------------------------------------|
   pm..|                         pm................|

E----9~---------------------------------------------17-19-21b(22)-r21--19-17-15-14~~--12-|
B-12-----12-10--------------------------------19-20--------------------------------------|
G--------------12-11h12p11p9----------9-11~----------------------------------------------|
D----------------------------12-11-12----------------------------------------------------|
A----------------------------------------------------------------------------------------|
E----------------------------------------------------------------------------------------|

E-------------------------------------------12----12-14-12-14-15-14-15-17-15-17-19-17-19-|
B-15-14-12-14h15p14p12-------12-14-15-14-15----15----------------------------------------|
G----------------------15~---------------------------------------------------------------|
D----------------------------------------------------------------------------------------|
A----------------------------------------------------------------------------------------|
E----------------------------------------------------------------------------------------|

E-21-21b(22)r21~~---------17-19-21-19-17----------------17-19-17-------------------------|
B-------------------19-21----------------21-19-17-19-21----------21-19-21~~~~-|----------|
G-----------------------------------------------------------------------------|--Chorus--|
D-----------------------------------------------------------------------------|----------|
A-----------------------------------------------------------------------------|----------|
E----------------------------------------------------------------------------------------|

E----------------------------------------------------------------------------------------|
B----------------------------------------------------------------------------------------|
G----------------------------------------------------------------------------------------|
D-4-------2-------------------------------------------4-------2--------------------------|
A-2-2-2-2-0--6-------5--4----4--5-5--2-4-5-4-----4----2-2-2-2-0--6-------5--4------------|
E------------4-4-4-4-3--2-22-2--3-3--0-2-3-2-2-2-2---------------4-4-4-4-3--2-222-222-223|
   pm....|    pm....|    pm.|               pm..|      pm....|    pm....|    pm..........|

E---------------------------------------------|
B---------------------------------------------|
G---------------------------------------------| end
D----------------4-----2----------------------|
A---------4-4----2-----0-----6-----5~~--------|
E-0-2-3-2-2-2----------------4-----3~~--------|
              

Rhythm Guitar During Guitar Solo	
						    x3
E---------------------------------------------------------------------------------------|
B------------------------------------------|--------------------------------------------|
G------------------------------------------|--------------------------------------------|
D-4-------6--7-------9--------11-----------|-4-------6--7-------9--7-----7-----7-9-7-6--|
A-2-2-2-2-4--5-5-5-5-7---------9---------4-|-2-2-2-2-4--5-5-5-5-7--5-5-5-5-5-5-5-7-5-4--|
E----------------------2-2-2-2---2-2-2-2-2----------------------------------------------|
   pm....|    pm....|   pm....|   pm....|     pm....|    pm....|    pm..| pm..|


TABLAURE EXPLANATION
**********************
pm..| = Palm mute

p = Pull off

h = Hammer on

b() = bend

A.H. = Artificial Harmonic

/ = Slide up

 = Slide down

~~~~ = vibrato

|     |
|     |
|*   *| = repeat from * to *
|*   *| 
|     |


Текст, аккорды и табулатура для песни "The Hills Have Eyes", исполняет "Stratovarius".
Используемые в песне аккорды можно найти в разделе Как брать аккорды. Аккорды для шестиструнной гитары. Другие песни можно найти на нашем сайте, воспользовавшись алфавитным указателем вверху страницы.


 
Ошибка в тексте? Выделите ошибку и нажмите Ctrl+Enter