Location: Season of Change - http://www.sci.fi/~jnevala/stratovarius/


STRATOVARIUS - METAL FRENZY (From Twilight Time)
Music By: Timo Tolkki

Transcribed By: Niclas Buss 
email: [email protected]
			          
Please Mail me if you find mistakes!

Tune Down 1/2 step !
	
  Riff 1
E----------------------------------------------------------------------------------------|
B----------------------------------------------------------------------------------------|
G*---------------------------------------------------------------------------------------|
D*---------9---------------------------9-------------------------9-----------------------|
A----------7---------------------------7-------------------------7-----------------------|
E--0--0-0----0--0-0-0-0--0-0--0-0-0-0----0--0-0-0-0-0-0--0--0-0----0--0-0-0-0--0-0--0-0-0|
     pm..|  pm.......................|  pm.............|   pm..|     pm..................
			
			    x2
E----------------------------------------------------------------------------------------|
B-----------------------|----------------------------------------------------------------|
G----------------------*|----------------------------------------------------------------|
D----9-----------------*|--------10--------------------------10-----------------------10-|
A----7------------------|---------7---------------------------7------------------------7-|
E-0----0--0-0-0-0-0-0-----0--0-0----0--0-0-0-0--0-0--0-0-0-0----0--0-0-0-0-0-0--0--0-0---|
 ..|     pm..........|      pm..|  pm.......................|  pm.............|   pm..|

E----------------------------------------------------------------------------------------|
B----------------------------------------------------------------------------------------|
G----------------------------------------------------------------------------------------|
D--------------------------10-------------------------12---------------------------12----|
A---------------------------7--------------------------9----------------------------9----|
E-0--0-0-0-0--0-0--0-0-0-0----0--0-0-0-0-0-0--0--0-0-----0--0-0-0-0--0-0--0-0-0-0-----0--|
 pm.......................|  pm.............|   pm..|   pm.......................|   pm

								   	end Riff 1
E----------------------------------------------------------------------------------------|
B---------------------------------------------------------------------------------|------|
G---------------------------------------------------------------------------------|------|
D---------------------12---------------------------12------------------9--7--9~---|-14-16|
A----------------------9----------------------------9------------------7--5--7~---|------|
E-0-0-0-0-0-0--0--0-0----0--0-0-0-0--0-0--0-0-0-0-----0--0-0-0-0-0-0---------------------|
 pm..........|   pm..|  pm.......................|   pm.............|				

					           faster			
E----------------------------------------15-17-19-15-17----17-15-------15----------------|
B----------------------15-17-19-15-17-19----------------19-------19-17----19-17-15-19-17-|
G----14-16-17-14-16-17-------------------------------------------------------------------|
D-17-------------------------------------------------------------------------------------|
A----------------------------------------------------------------------------------------|
E----------------------------------------------------------------------------------------|

E--------------------------------------------------------------------------------------15|
B-15----17-15----------------|----------|----------------------------15-17-19-15-17-19---|
G----17-------17-16~---------|--Riff-1--|----------14-16-17-14-16-17---------------------|
D----------------------4~~---|----------|-14-16-17---------------------------------------|
A----------------------2~~---|----------|------------------------------------------------|
E----------------------------------------------------------------------------------------|

E-17-19~------------------------------------------------15-17-19~------------------------|
B-------------------------------------15-17-19-15-17-19----------------------------------|
G-------------------14-16-17-14-16-17----------------------------------------16-17-19-16-|
D----------14-16-17-------------------------------------------------16-17-19-------------|
A----------------------------------------------------------------------------------------|
E----------------------------------------------------------------------------------------|

E-------------------------17-19-20~------------------------------------------------------|
B-------17-19-20-17-19-20-------------------------------------------------17-19-20-17-19-|
G-17-19-------------------------------------------------16-17-19-16-17-19----------------|
D-------------------------------------16-17-19-16-17-19----------------------------------|
A----------------------------------------------------------------------------------------|
E----------------------------------------------------------------------------------------|

E----17-19-20~------------------------------------------------19-20-22~------------------|
B-20----------------------------------------19-20-22-19-20-22----------------------------|
G-------------------------17-19-21-17-19-21----------------------------------------------|
D----------------17-19-21----------------------------------------------------------------|
A-------------------------------------------------------------------------/5~------------|
E-------------------------------------------------------------------------/3~------------|

  Gtr.1
E--15-19-17-15-14-17-15-14-12-15-14-12-10-14-12-10-8-12-10-8-7-10-8-7-5-8-7-5-3~--------|
B----------------------------------------------------------------------------------------|
G--Gtr-2.--------------------------------------------------------------------------------|
D--------------7------------9----------------------7------------------5---7---------7---|
A---5----------5------------7----------10----------5---------5--------3---5---5-----5---|
E---3-----------------------------------8--------------------3----------------3----------|

E--------------------------|
B--------------------------|
G--------------------------| end
D---12--------------------|
A---10-----5~~------------|
E-----------3~~------------|

TABLAURE EXPLANATION
**********************
pm..| = Palm mute

/ = Slide up

 = Slide down

~~~~ = vibrato

|     |
|     |
|*   *| = repeat from * to *
|*   *| 
|     |


Текст, аккорды и табулатура для песни "Metal Frenzy", исполняет "Stratovarius".
Используемые в песне аккорды можно найти в разделе Как брать аккорды. Аккорды для шестиструнной гитары. Другие песни можно найти на нашем сайте, воспользовавшись алфавитным указателем вверху страницы.


 
Ошибка в тексте? Выделите ошибку и нажмите Ctrl+Enter