Location: http://www.sci.fi/~jnevala/stratovarius/

                        K I S S  of  J U D A S
        Tab by: Mat Solo (Italy)            (...tune 1/2 step down!)
  Keyboard solo (arr. for guitar)
e: -------------------------------------------------------|------------------
B: -------------------------------------------------------|------------------
G: -11h12p11-------11-------------------------------------|------------------
D: ----------14-12----14-12-11--11h12p11-------11---------|------------------
A: --------------------------------------14-13----14-13-9-|-10-9-7-----------
E: -------------------------------------------------------|--------10-9-7---
 
e: ------------------------------|-------------------------------------------
B: ------------------------------|-------------------------------------------
G: ------------------------------|-15h16p15-------15-------------------------
D: ---------------------11-12-14-|----------17-16----17-16-14-17-16-14-------
A: ----------9-10/13-14----------|-------------------------------------17----
E: -/9-10-12---------------------|-------------------------------------------
                                  I made this part(up) easier(the * one too) 
e: -------------|--------------------------------|---------------------------
B: -------------|--------------------------------|---------------------------
G: -------------|--------------------------------|-14h15p14-------14---------
D: -16-14-------|-14-----------------------------|----------17-15----17-15-14
A: -------17-16-|----17-16-14-17-16-14-----------|---------------------------
E: -------------|----------------------15-14-^^^-|---------------------------   
e: ----------------------------|---------------------------------------------
B: ----------------------------|---------------------------------------------
G: ----------------------------|---------------------------------------------
D: -14h15p14-------14----------|----------------------------------------14---
A: ----------17-16----17-16-12-|-13-12-10-------------------12-13/16-17------
E: ----------------------------|----------13-12-10/12-13-15------------------

e: -------|----------------------------------------------------|-------------
B: -------|----------------------------------------------------|-------------
G: -------|-18h19p18-------18----------------------------------|-------------
D: -15-17-|----------20-19----20-19-17-20-19-17----19-17-------|-17----------
A: -------|-------------------------------------20-------20-19-|----20-19-17-
E: -------|----------------------------------------------------|-------------
            *              Guitar solo
e: --------------------||-20b(22)r20^^^-15-17-18-(18)b-18-17-15-17b(17)r^^^-|
B: --------------------||-----//--------------------------------------------|
G: --------------------||---------------------------------------------------|
D: --------------------||---------------------------------------------------|
A: -20-19-17-----------||---------------------------------------------------|
E: ----------18-17-^^^-||---------------------------------------------------|

e: -18-17-15----------18-17-15-----------------------------------------------
B: ----------18-17-15----------18-17-15-18p17p15-----------------------------
G: ----------------------------------------------17-15-14-17p15p14-----------
D: ----------------------------------------------------------------17-15-14--
A: --------------------------------------------------------------------------
E: --------------------------------------------------------------------------

e: -------------13h17p13-------------------|---------------------------------
B: ----------15----------15----15br(15)^^^-|-13h15p13-------13---------------
G: -------14----------------14-------------|----------15-14----15-14-12------
D: ----15----------------------------------|----------------------------15-14
A: -17-------------------------------------|---------------------------------
E: ----------------------------------------|---------------------------------

e: --------------------------------------------------------------------------
B: --------------------------------------------------------------------------
G: ----------------------14----------------------14----14-15-17-15-14----14--
D: -12/14-15-17-14-15-17----17-15-14----14-15-17----17----------------17-----
A: ----------------------------------17--------------------------------------
E: --------------------------------------------------------------------------
                                                                          T
e: ---------------------13----------------13-15-17p15p13-17^^^-|-13h15h17-20-
B: ------14-15-14-15-17----17-15-14-15-17----------------------|-------------
G: 15-17-------------------------------------------------------|-------------
D: ------------------------------------------------------------|-------------
A: ------------------------------------------------------------|-------------
E: ------------------------------------------------------------|-------------
             T           T
e: 13h15h17-20-13h15h17-20-17p15p1312h13h15p13p12h13p12-12h13h15p13p12h13p12
B: --------------------------------------------------------------------------
G: --------------------------------------------------------------------------
D: --------------------------------------------------------------------------
A: --------------------------------------------------------------------------
E: --------------------------------------------------------------------------

e: 10h12p10-10h12h13p12p10h12p10--------------------------------------------
B: -------------------------------13p11p10h11p10-10h11h13p11p10h11p10--------
G: -------------------------------------------------------------------10p9h10
D: --------------------------------------------------------------------------
A: --------------------------------------------------------------------------
E: --------------------------------------------------------------------------

e: --------------------------------------------------------------------------
B: ----10h11h13p11p10h11p10------------10h11h13p11p10-------------------13p10
G: h12----------------------10p9h10h12----------------12p10p9h10p9-12-10-----
D: --------------------------------------------------------------------------
A: --------------------------------------------------------------------------
E: --------------------------------------------------------------------------

e: -------------|------------------------------------------------------------
B: -------10^^^-|------------------------------------------------------------
G: -10----------|------------------------------------------------------------
D: ----12-------|-------------------------------------------------------10-10
A: -------------|----------------------------10-10-10-12-12-12-13-13-13------
E: -------------|-10-10-10-12-12-12-13-13-13---------------------------------
                 P.M.
e: ---------------------------------------------|-17p14----17p14----/20p17-22
B: ---------------------------------------------|-------16-------16----------
G: ------------------------------12-12-12-14^^^-|----------------------------
D: -10/12-12-12-14-14-14-15-15-15---------------|----------------------------
A: ---------------------------------------------|----------------------------
E: ---------------------------------------------|----------------------------

e: -20-19-17-20p19p17-20p19p17-----------------------------------------------
B: ----------------------------19p17p16-19p17p16-----------------------------
G: ----------------------------------------------17p16p14----------16^^^--14-
D: -------------------------------------------------------17p16p14-----------
A: --------------------------------------------------------------------------
E: --------------------------------------------------------------------------

e: -------------------|------------------------------------------------------
B: -------------------|------------------------------------------------------
G: -12-11-11----------|-------------16-------------------16h17h19-14h16h17---
D: ----------12-------|-14/16-17-19----16-17-19-16h17h19---------------------
A: -------------14^^^-|------------------------------------------------------
E: -------------------|------------------------------------------------------

e: ----------------||------------------------8h10h12p8----------------------|
B: ----------17^^^-||------------------10-12-----------10-------------------|
G: -16h17h19-------||----------------9--------------------9-----------------|
D: ----------------||---------7-9-10------------------------10--------------|
A: ----------------||-------7----------------------------------12-7---------|
E: ----------------||-5-7-8-----------------------------------------8-7-5-7-|
                     this is the lick Timo plays during the rhythmics


 b =bend  r=release  ^^^=vibrato  / =slide  p=pull-off  h=hammer-on
 P.M.=palm muting  T=tapping

 **** I'm not sure about every single note of the guitar solo,but i think
      it's almost the same as the real one!!


Текст, аккорды и табулатура для песни "Kiss Of Judas", исполняет "Stratovarius".
Используемые в песне аккорды можно найти в разделе Как брать аккорды. Аккорды для шестиструнной гитары. Другие песни можно найти на нашем сайте, воспользовавшись алфавитным указателем вверху страницы.


Слушать онлайн Kiss Of Judas


StratovariusKiss Of Judas на Яндекс.Музыке


 
Ошибка в тексте? Выделите ошибку и нажмите Ctrl+Enter