STRATOVARIUS
            	               ------------
                  	  I Walk to my own Song


 ~  - let ring
p.m - palm muted
/   - slide down
   - slide up
 b  - bend
 r  - release

Tabbed by Thomas Kreutzer
email: [email protected]


keyboard arranged for guitar (9 times alone than followed by Timo)
E---||----------6-------------------------------------------------------
B---||------------------------------------------------------------------
G---||*---0-6-8---------------------------------------------------------
D---||*-----------------------------------------------------------------
A---||------------------------------------------------------------------
E---||------------------------------------------------------------------



Intro riff (repeat 3 times)
E-----------------------------------------------------------------------
B-----------------------------------------------------------------------
G-----------------------------------------------------------------------
D-----------8-8-8-8-8-8-8-8-8-8-------6-6-6-6-6-6-6-6-6-6-6-6-6/8-------
A-----------6-6-6-6-6-6-6-6-6-6-6-8-9-4-4-4-4-4-4-4-4-4-4-4-4-4/6-------
E-----------------------------------------------------------------------
                p.m   p.m   p.m           p.m   p.m   p.m



							   Only third time
E-----------------------------------------------------------------------
B-----------------------------------------------------------------------
G---------------------------------------------8-6-----------------------
D---8-8-8-8-8-8-8-8-8-8-------2-2-2-2-2-2-2-2----9-8-------8-6-4-3-3~~--
A---6-6-6-6-6-6-6-6-6-6-6-8-9-4-4-4-4-4-4-4-4----------------------1~~--
E-----------------------------------------------------------------------
        p.m   p.m   p.m           p.m   p.m



verse
E-----------------------------------------------------------------------
B-----------------------------------------------------------------------
G-----------------------------------------------------------------------
D---8-8-8-8-8-8-8/78-8---------8/6-6--------6/2-2--------2/1-1------1/8
A---6-6-6-6-6-6-6/56-6---------6/4-4--------4/4-4--------4/3-3------3/6
E-----------------------------------------------------------------------
      p.m......       p.m......     p.m......    p.m......    p.m...



E-----------------------------------------------------------------------
B-----------------------------------------------------------------------
G-----------------------------------------------------------------------
D---8-8-8-8-8-8-8/78-8---------8/6-6--------6/2-2--------2/4-4---------
A---6-6-6-6-6-6-6/56-6---------6/4-4--------4/4-4--------4/6-6---------
E-----------------------------------------------------------------------
      p.m......       p.m......     p.m......    p.m......    p.m...


E-----------------------------------------------------------------------
B-----------------------------------------------------------------------
G-----------------------------------------------------------------------
D---8-8-8-8-8-8-8/78-8---------8/6-6--------6/2-2--------2/4-4---------
A---6-6-6-6-6-6-6/56-6---------6/4-4--------4/4-4--------4/6-6---------
E-----------------------------------------------------------------------
      p.m......       p.m......     p.m......    p.m......    p.m...   


chorus								
E-----------------------------------------------------------------------
B-----------------------------------------------------------------------
G-----------------------------------------------------------------------
D----- 6~-4~-8~-6~------4~----3~-1-1-1-1-1-1-1-1-1-1-1------------------
A---4~-4~-2~-6~-4~---4~-6~-6~-1~-3-3-3-3-3-3-3-3-3-3-3------------------
E---2~---------------2~----4~-------------------------------------------
                                 p.m   p.m   p.m





Song Structure:



keyboard intro
Intro riff
verse
I'm walking the streets and i hear what you say
Advicing me tilling me how to play
I know your name it's called Mr.Mean
One thing i've learned you don't know beans

corus
High i fly
I touch the sky
Far above the frozen minds
You can't kill my dreams
You can't kill my spirit
I was born to be free

Intro riff
I walk to my own song
Every day the power grows stronger in me
I walk to my own song
Head up proud
I'm the master of my own destiny

verse
You think you know what is better for me
Holding me lectures of how i should be
Shrugging my shoulders i leave you behind
Anyway i look at it you are blind

corus
High i fly
I touch the sky
Far above the frozen minds
You can't kill my dreams
You can't kill my spirit
I was born to be free

Intro riff
I walk to my own song
Every day the power grows stronger in me
I walk to my own song
Head up proud
I'm the master of my own destiny

Solo (it's just an idea...i'm really not sure about it at all...and it's only the beginning)

                 					     followed by a malmsteen like part
E-13b-13r-------------------------------------------------------------
B---------------------------------------------------------------------
G--------15-13-15b-15r-------14b-14r-13-13----------------------------
D----------------------15-13---------------16-15-13-------------------
A---------------------------------------------------16-12-13----------
E---------------------------------------------------------------------
							     followed by a malmsteen like part


   solo ends with
E-----------------------------------------------------------------------
B-----------------------------------------------------------------------
G-----------8~--4---4---------------------------------------------------
D---------------4-2-2---------------------------------------------------
A---------------2-2-2---------------------------------------------------
E-----------------0-----------------------------------------------------



Intro riff
I walk to my own song
Every day the power grows stronger in me
I walk to my own song
Head up proud
I'm the master of my own destiny

fade out......................................................



this is my very first tab...I would be thankfull for any comments
or corrections... have fun with this great Strato Song!!!


Текст, аккорды и табулатура для песни "I Walk To My Own Song", исполняет "Stratovarius".
Используемые в песне аккорды можно найти в разделе Как брать аккорды. Аккорды для шестиструнной гитары. Другие песни можно найти на нашем сайте, воспользовавшись алфавитным указателем вверху страницы.


 
Ошибка в тексте? Выделите ошибку и нажмите Ctrl+Enter