Stratovarius / Visions

                       Holy Light (Acoustic part)
          Transcribed by Vesa Nupponen ([email protected])


   Am              E                 Am              Esus4   E

e:-----0-----------------------0---|-------0---------------------0---|
B:---------1-------------0-------0-|---------1-------------0-------0-|
G:-------------2-------1---1-------|-----2-------2-------2---1-------|
D:---2---2---2---2---2-------2-----|---2-------2---2---2-------2-----|
A:-0-------------------------------|-0-------------------------------|
E:-----------------0---------------|-----------------0---------------|

e:-----0-------------------1-------|-----0-------------------1---0---|
B:---------1-----------0-----------|---------1-------0---3-----------|
G:-------------2---1---------------|-------------2-------------------|
D:---------------------------------|---------------------------------|
A:---------------------------------|---------------------------------|
E:---------------------------------|---------------------------------|


   Am              Dm                Esus4   E       Asus2   Asus2/G

e:-------0---------------1---------|-------------0--------------------|
B:---------1-----------3---3-------|-------0-------0-------0-------0--|
G:-----2-----2---2---2-------2---2-|-----2---1-----------2-------2----|
D:---2---------2---0-----------0---|---2-------2-------2-------2------|
A:-0-------------------------------|-----------------0----------------|
E:---------------------------------|-0-----------------------3--------|

e:-----0-----------1-----0---------|----------------------------------|
B:---------1---------------3-1-0---|-----0---------3-1-0----------0-1-|
G:-------------2-----------------2-|-1-2-----------------2------2-----|
D:---------------------------------|-------3-2------------------------|
A:---------------------------------|----------------------------------|
E:---------------------------------|----------------------------------|


   Asus2/F Esus4   Dsus2   Dsus2/C  Esus4   E       Am      Asus2/G

e:-----------------------0------0-|-------------0---------0----------|
B:-------0-------0-----3------3---|-------0-------0---------------0--|
G:-----2-------2-----2------2-----|-----2---1-----------2-------2----|
D:---2-------2-----0--------------|---2-------2-------2-------2------|
A:------------------------3-------|-----------------0----------------|
E:-1-------0----------------------|-0-----------------------3--------|

e:-------5---3--------------------|---------4-------7-----5----------|
B:-------------5-4-3------------6-|-5------------------------------0-|
G:-2------------------------------|------------------------------2---|
D:--------------------------------|----------------------------------|
A:--------------------------------|----------------------------------|
E:--------------------------------|----------------------------------|


   Asus2/F Esus4   Dsus2   Dsus2/C   Esus4   E       Am

e:-----------------------0-------0-|-------0-----0---------0---------|
B:-------0-------0-----3-------3---|---------------0---------1-------|
G:-----2-------2-----2-------2-----|-----2---1-----------2-----2---2-|
D:---2-------2-----0---------------|---2-------2-------2---------2---|
A:-------------------------3-------|-----------------0---------------|
E:-1-------0-----------------------|-0-------------------------------|

e:-----------3---------------------|------4------8-7-5---------------|
B:-1-----------6-5-3-----------6---|-5-------------------------------|
G:---2-----------------------------|-----------------------------4-5-|
D:---------------------------------|---------------------------7-----|
A:---------------------------------|---------------------------------|
E:---------------------------------|---------------------------------|


   F               C                 Dm              Am

e:-------1---------------0---------|-------1---------------0---------|
B:-----1---1---------------1-------|-----2---2---------------1-------|
G:---2-------2---2-----0-----0---0-|---3-------3---3-----2-----2---2-|
D:-3-----------3-----2---------2---|-0-----------0-----2---------2---|
A:-----------------3---------------|-----------------0---------------|
E:---------------------------------|---------------------------------|

e:-5-----------7-8-----------------|---------------5-----------------|
B:-----------------8---------------|-6-----------8-------------------|
G:---------------------------------|-----------------9-----------7-5-|
D:---------------------------------|---------------------------------|
A:---------------------------------|---------------------------------|
E:---------------------------------|---------------------------------|


   Esus4           E                 Asus2       Am  Asus2

e:-------0---------------0---------|---------0-----------0-|
B:---------0---------------0-------|-------0---0-1------0--|
G:-----2-----2---2-----1-----1---2-|-----2---------2---2---|
D:---2---------2-----2---------2---|---2--------------2----|
A:---------------------------------|-0---------------0-----|
E:-0---------------0---------------|-----------------------|

e:---------------------------------|-----------------5-----|
B:-------------6-----5-------------|---------5-------------|
G:-4---------------------7---------|-4---5-----------------|
D:-------6-------------------------|-----------------------|
A:---------------------------------|-----------------------|
E:---------------------------------|-----------------------|


Текст, аккорды и табулатура для песни "Holy Light", исполняет "Stratovarius".
Используемые в песне аккорды можно найти в разделе Как брать аккорды. Аккорды для шестиструнной гитары. Другие песни можно найти на нашем сайте, воспользовавшись алфавитным указателем вверху страницы.


 
Ошибка в тексте? Выделите ошибку и нажмите Ctrl+Enter