Music and Words By: Timo Tolkki/Timo Kotipelto

Transcribed By: Niclas Buss
Day tabbed: 25.11.2002
Homepage: http://www.metalprovider.com/thedarktower/enter.htm
email: [email protected]

Please mail me if you can find mistakes!

-----------------------------------------

 Tune Down 1/2 Step! 

  Guitar & Keyboard Intro:
E-----------------------------------------------------------------------------------|
B--9~-9~--12-12~-10--9-h10p9----------10-10~-9-h10p9--------/12--10-9--------9~-b(10|
G----------------------------11~-11~-----------------11--9~------------11-9---------|
D-----------------------------------------------------------------------------------|
A-----------------------------------------------------------------------------------|
E-----------------------------------------------------------------------------------|

E-----------------------------------------------------------------------------------|
B)r9------9h10p9----9~-9~--12-12~--10-9-h10p9----------10-10~--9-h10p9-------/12--10|
G----11~~--------11---------------------------11~-11~------------------11-9~--------|
D-----------------------------------------------------------------------------------|
A-----------------------------------------------------------------------------------|
E-----------------------------------------------------------------------------------|

                                             Intro (Rhythm Guitar)
E-----------------------------------------------------------------------------------|
B-9-h10p9--------------9~-7h9p7-----------------------------------------|
G---------11-9-9~~-------------9~~-------|---6-----2-----4-------------/9---------|
D-----------------------------------------|---6-----2-----4----6----7---/9----9~---|
A------------------------------------------|---4-----0-----2----6----7---/7----9~---|
E---------------------------------------------------------------4----5---------7~---|

E-----------------------------------------------------------------------------------|
B-----------------------------------------------------------------------------------|
G--6-----6-----6~--2-----2-----2~---4-----4-----4~----------------------------------|
D--6-----6-----6~--2-----2-----2~---4-----4-----4~--6-----6-----6~--7-----7-----7~-|
A--4-4-4-4-4-4-4~--0-0-0-0-0-0-0~---2-2-2-2-2-2-2~--6-----6-----6~--7-----7-----7~-|
E---------------------------------------------------4-4-4-4-4-4-4~--5-5-5-5-5-5-5~-|
    pm..| pm..|     pm..| pm..|      pm..| pm..|      pm..| pm..|     pm..| pm..|

                                   (end Intro)                   Bridge (1) 3 Gtrs:
E-----------------------------------------------------------|
B---------------------------------------------|------9--7-5~|
G--4-----4-----4~-/-9~~-----------------------||----Verse-1------9--8-6~|
D--4-----4-----4~-/-9~~-----------------------||--(No-Guitar)--|---2~~--------------|
A--2-2-2-2-2-2-2~-/-7~~---7~-6h7p6p4~~-------|----|---2~~-------7~-6-4~|
E--------------------------------------------|--------0~~--------------|
    pm..| pm..|

                     Bridge (2)                                               Chorus
E-----------------------------------------------------------------------------------|
B--------------------------------------------------|-------|
G----|--Verse-2-----------------------------------------------|---6---|
D-----|---2~~----------7~---------9-9-9-9-9-9-9-9-9-9---------|---6---|
A-----|---2~~----------7~---------9-9-9-9-9-9-9-9-9-9---7-6~--|---4---|
E---------------------0~~---4~-2~--5~--4~-5~--7-7-7-7-7-7-7-7-7-7-----------------|

E-----------------------------------------------------------------------------------|
B-----------------------------------------------------------------------------------|
G---2----4--------------/9---------/-6-----6-----6-----2-----2-----2-----4-----4----|
D---2----4----6----7----/9----9~---/-6-----6-----6-----2-----2-----2-----4-----4----|
A---0----2----6----7----/7----9~---/-4-4-4-4-4-4-4-4---0-0-0-0-0-0-0-0---2-2-2-2-2-2|
E-------------4----5----------7~----------------------------------------------------|
                                      pm..| pm..| pm    pm..| pm..| pm    pm..| pm..|

                                                                           Harmony S
E-----------------------------------------------------------------------------------|
B------------------------------------------------------------------------|--17p16p14|
G-4-----------------------------------------------------------/9~--------|----------|
D-4-----6-----6-----6-----7-----7-----7-----9-----9-----9----/9~--------|----------|
A-2-2---6-----6-----6-----7-----7-----7-----9-----9-----9----/7~--7-6~--|----------|
E-------4-4-4-4-4-4-4-4---5-5-5-5-5-5-5-5---7-7-7-7-7-7-7-7------------------------|
   pm     pm..| pm..| pm    pm..| pm..| pm    pm..| pm..| pm

 olo
E-------------------------------------14-/16-12-------------------------------------|
B----------------------------14h16h17------.--.-14----------------------------14h16h|
G-13----------------------13---------------------.-13----------------------13-------|
D----14p13p1110/11h13h14---------------------------.-14p13p1110/11h13h14----------|
A-----------------------------------------------------------------------------------|
E-----------------------------------------------------------------------------------|

E---16-/19-19~-17-17~--16-16~--14-14~-----------------------------------------------|
B17------------------------------------17--16-17p16p14----------------------------14|
G------------------------------------------------------13----------------------13---|
D---------------------------------------------------------14p13p1110/11h13h14------|
A-----------------------------------------------------------------------------------|
E-----------------------------------------------------------------------------------|

E-------14-/16-12----------------------------------------16-/19~--19-2116~---16-19|
Bh16h17------.--.-14----------------------------14h16h17----------------------------|
G------------------.-13----------------------13-------------------------------------|
D---------------------.-14p13p1110/11h13h14----------------------------------------|
A-----------------------------------------------------------------------------------|
E-----------------------------------------------------------------------------------|

                                                    Bridge (3)
E14~---14-1612~---11-12-14-11------------------------------------------------------|
B------------------------------14~~-------------------------|
G-------------------------------------|--Verse-3------------------------|
D-------------------------------------|---2~~---------7~---------9-9-9-9|
A-------------------------------------|---2~~---------7~---------9-9-9-9|
E-----------------------------------------------------0~~---4~-2~-5~--4~-5~--7-7-7-7|

                                                 Outro (with Chorus riff a few times)
E-----------------------------------------------------------------------------------|
B----------------------------------|--9~-9~--12-12~--10--9-h10p9--------|
G------------------------------|--Chorus-(x2)--------------------11~-11-|
D-9-9-9-9-9-9-9-9-9----------------------------------------|
A-9-9-9-9-9-9-9-9-9----7~-6~-------------------------------|
E-7-7-7-7-7-7-7-7-7----------------------------------------------------------------|

E-----------------------------------------------------------------------------------|
B---10-10~-9-h10p9---------/12--10-9--------9~-b(10)r9-----/9p10p9----9~-9~--12-12~-|
G~-----------------11--9~-------------11-9-------------11~---------11---------------|
D-----------------------------------------------------------------------------------|
A-----------------------------------------------------------------------------------|
E-----------------------------------------------------------------------------------|

E--------------------------------------------------------------------------------/16|
B--10-9-h10p9----------10-10~--9-h10p9--------/12--10--9-h10p9-----------9~-7~------|
G-------------11~-11~------------------11-9~-------------------11-9-9~-------------|
D-----------------------------------------------------------------------------------|
A-----------------------------------------------------------------------------------|
E-----------------------------------------------------------------------------------|

       fade out
E~-16~--19-19~-17--16-h17p16p14~-14~-/17-17~-16-h17p16-14h16p14-----/-19--17--16-h17|
B---------------------------------------------------------------17~-----------------|
G-----------------------------------------------------------------------------------|
D-----------------------------------------------------------------------------------|
A-----------------------------------------------------------------------------------|
E-----------------------------------------------------------------------------------|

Ep16-14-----16~-b(17)r16-14~~--14-16-17-14/16~-16~--19-19~-17--16-h17p16p14~-14~--/-|
B-------17--------------------------------------------------------------------------|
G-----------------------------------------------------------------------------------|
D-----------------------------------------------------------------------------------|
A-----------------------------------------------------------------------------------|
E-----------------------------------------------------------------------------------|

E17-17~--16-h17p16-14------/-19--17--16-h17p16p14----------/-16-14~--/16~-16~--19-19|
B---------------------17~-------------------------17-17~----------------------------|
G-----------------------------------------------------------------------------------|
D-----------------------------------------------------------------------------------|
A-----------------------------------------------------------------------------------|
E-----------------------------------------------------------------------------------|

E~--17--16-h17p16p14~-14~-/17-17~--16-h17p16p14-------/-19--17--16-h17p16-14-----||
B------------------------------------------------17~-------------------------17--||
G--------------------------------------------------------------------------------|| end
D--------------------------------------------------------------------------------||
A--------------------------------------------------------------------------------||
E--------------------------------------------------------------------------------||

--------------------------------------------------------------------------------------

  Rhythm Guitar during Harmony Solo
E--------------------------------------------------------||
B--------------------------------------------------------||
G---6~------6~-----------------/-6~-----6~---------------|| end
D---6~------6~----7~----7~-----/-6~-----6~----7~----7~---||
A---4~------4~----7~----7~-----/-4~-----4~----7~----7~---||
E-----------------5~----5~--------------------5~----5~---||

--------------------------------------------------------------------------------------

=======================
=TABLATURE EXPLANATION=
=======================

A.H. = Artificial harmonic

> = Volume decrease effect

pm..| = Palm mute

h = hammer on

p = pull off

/ = slide up

 = slide down

~ = Vibrato

b() = Bend

x = Pick slide

--------
--------
---12--- = Tremolo pick
----/---
----/---
----/---

---.---
--12--- = Staccato
-------
-------
-------

|     |
|     |
|*   *| = repeat from * to *
|*   *| 
|     |


Текст, аккорды и табулатура для песни "Eagleheart", исполняет "Stratovarius".
Используемые в песне аккорды можно найти в разделе Как брать аккорды. Аккорды для шестиструнной гитары. Другие песни можно найти на нашем сайте, воспользовавшись алфавитным указателем вверху страницы.


 
Ошибка в тексте? Выделите ошибку и нажмите Ctrl+Enter