сольный проект Timo Kotipelto, альбом "Wating For The Dawn"

Подборка на полную точность не претендует, а потому любые
отзывы/комментарии/поправки приветствуются. Можно и по мылу. 

Я подбирал в стандартной настройке. 

ВСТУПЛЕНИЕ:

1-я гитара:
   F#m                               D
e|---------2---------------2-------|---------2---------------2-------|
B--2-------2-------2---|-----3-------3-------3-------3---|
G|---2---2---2---2---2---2---2---2-|---2---2---2---2---2---2---2---2-|
D|-4---------------4---------------|-0---------------0---------------|
A--------------------------------------------|
E--------------------------------------------|

2-я гитара:
e--------4-5-4-57---5-|-5p4---------------4-5-4-57---5-|
B|-5h7-------------7---------------|-----7-5-7-------7---------------|


1-я гитара:
   E                                 F#m                     E
e|---------0---------------0-------|---------2-----------------------|
B|-----0-------0-------0-------0-----2-------2-------0---|
G|---1---1---1---1---1---1---1---1-|---2---2---2---2---2---2---1---1-|
D|-2---------------2---------------|-4---------------4-------2-------|
A--------------------------------------------|
E--------------------------------------------|

2-я гитара:
e|-5h4-----------------------------|-5p4-----------------------------|
B|-----7-5-5-----------------------|-----7-5-7-----------------------|

Повторить все это еще раз и в конце, перед куплетом:

1-я гитара:
   F#m
e|---------2-----------------------|
B----------------------|
G|---2---2-------------------------|
D|-4-------------------------------|
A----------------------|
E----------------------|

2-я гитара:
e|-7h9-7------7h9-7----------------|    


Текст, аккорды и табулатура для песни "Beauty Has Come", исполняет "Stratovarius".
Используемые в песне аккорды можно найти в разделе Как брать аккорды. Аккорды для шестиструнной гитары. Другие песни можно найти на нашем сайте, воспользовавшись алфавитным указателем вверху страницы.


 
Ошибка в тексте? Выделите ошибку и нажмите Ctrl+Enter