----------------------------------------------------------------------------
Until The Day I Die - Story of The Year
----------------------------------------------------------------------------
Tabbed by:twiztdskatr
Email: [email protected]

This is as close as I could get, the lead parts were hard to identify. 

Tuning:
Ryan Phillips - Guitar 2 (Lead) - Drop D
Phillip Sneed - Guitar 1 (Rhythm) - Standard

Guitar 1 Intro
0:01-0:25 Distortion 
(Palm Muted)
e|-------------------------------------------------------------------------|
B|----10------10-----------------------------------------------------------|
G|-7-7--7-77-7--7-7--------------------------------------------------------|
D|9-9----9--9----9---------------------------------------------------------|
A|-------------------------------------------------------------------------|
E|-------------------------------------------------------------------------|

Guitar 1 Verse 1
0:25-0:36
e|-------------------------------------------------------------------------|
B|-------------------------------------------------------------------------|
G|999-999-555-555-777-777-77-77--------------------------------------------|
D|999-999-555-555-777-777-77-77--------------------------------------------|
A|777-777-333-333-555-555-55-55--------------------------------------------|
E|-------------------------------------------------------------------------|

Guitar 2 Verse 1
0:25-0:36
e|--------------------------------------------------|----------------------|
B|151515x151515x141414x141414-----------------------|----------------------|
G|xxxxxxxxxxxxxxxxxxxxxxxxxxx141414x141414x1414x1414|--7-7h9---------------|
d|121212x121212x121212x141414xxxxxxxxxxxxxxxxxxxxxxx|-9-----9--------------|
A|---------------------------121212x121212x1414x1212|----------------------|
D|--------------------------------------------------|----------------------|

Guitar 1
0:36-1:10 
Repeat Intro W/ Distortion

Guitar 2 Verse 2
0:47-1:00 
(Palm Muted)
e|-----------------------------------|-------------------------------------|
B|-----------------------------------|-------------------------------------|
G|-----------------------------------|-7-----------------------------------|
d|99999999-77777777-0000000000000000-|-7-(Let Ring)------------------------|
A|99999999-77777777-0000000000000000-|-9-----------------------------------|
D|99999999-77777777-0000000000000000-|-------------------------------------|

Pick Scrape

Guitar 1 Chorus
(1:10-1:30}
e|-------------------------------------------------------------------------|
B|-------------------------------------------------------------------------|
G|--------222--44444444----------------------------------------------------|
d|---555--222--44444444----------------------------------------------------|
A|---555--000--22222222----------------------------------------------------|
E|---333-------------------------------------------------------------------|

Guitar 2 Chorus
(1:10-1:30)
e|----------------------|--------------------------------------------------|
B|----------------------|-9h10p9-9h10p9-9h10p9-----------------------------|
G|--------222--44444444-|--------------------------------------------------|
d|---555--222--44444444-|--------------------------------------------------|
A|---555--000--22222222-|--------------------------------------------------|
E|---555----------------|--------------------------------------------------|

Guitar 1
Repeat Intro

Guitar 2
Repeat Verse 2

Guitar 1
Repeat Chorus

Guitar 2
Repeat Chorus

Guitar 1 Verse 3
e|-----------------------------------|
B|-----------------------------------|
G|-----------------------------------|
d|1111-99-7--------------------------|
A|1111-99-7-(Let Ring)---------------|
E|9-9--77-5--------------------------|

Guitar 2 Verse 3
e|-----------------------------------|
B|-----------------------------------|
G|-----------------------------------|
d|9-9-77-5---------------------------|
A|9-9-77-5-(Let Ring)----------------|
D|9-9-77-5---------------------------|

Guitar 1
Repeat Intro

Guitar 2
e|-----------------------------------|-------------------------------------|
B|-----------------------------------|-------------------------------------|
G|9h10p9-9-10-7----------------------|-------------------------------------|
d|-----------------------------------|-------------------------------------|
A|-----------------------------------|-------------------------------------|
D|-----------------------------------|-------------------------------------|

Long Silent Part

Guitar 1
Repeat Chorus

Guitar 2
Repeat Chorus

Guitar 1
Repeat Verse 1

Guitar 2
Repeat Verse 1

Guitar 1
Repeat Verse 3 

Guitar 2
Repeat Verse 3

~Peace~


Текст, аккорды и табулатура для песни "Until The Day I Die", исполняет "Story Of The Year".
Используемые в песне аккорды можно найти в разделе Как брать аккорды. Аккорды для шестиструнной гитары. Другие песни можно найти на нашем сайте, воспользовавшись алфавитным указателем вверху страницы.


 
Ошибка в тексте? Выделите ошибку и нажмите Ctrl+Enter