-----------------------------------------------------------------------------
                      Story of the Year - Dive Right In
-----------------------------------------------------------------------------
                                 Drop D Tuning
                           Submitted by: Thienskater

~ let ring
. palm mute
' very light palm mute (VERY LIGHT)
h hammer on
p pull off
s slide
 slide down
, light on the 6th string

E|------------8----------------------||
B|---6-5-6-5-6--6-5-6-5-6-5-6-5~-----||
G|--5---5---5--5---5---5---5---------||
D|-----------------------------------||
A|-5---------------------------------||
D|-----------------------------------||


E|-----------------------------------------------------------
B|-----------------------------------------------------------
G|--------------10-10-10----------10-10-10-10101010-9-9-1010-
D|-12-000-0000-8--8--8--000-0000-8--8--8--------------------
A|-12-000-0000-8--8--8--000-0000-8--8--8--8-8-8-8--7-7-8-8--
D|-12-000-0000----------000-0000----------------------------
       ..  ....          ... ....                                 2X

                                                                  
E|-------------------------------------||
B|-------------------------------------||
G|-12-12-12-12-12-12-12-12-------------||
D|-------------------------------------||
A|-10-10-10-10-10-10-10-10-------------||
D|-------------------------------------||



E|-------0h1--------0h1--------0h1--------0h1----0h1------||
B|----------1----------1----------1----------1------1-----||
G|--------------------------------------------------------||
D|-0-0-0------0-0-0------0-0-0------0-0-0-----------------||
A|-0-0-0------0-0-0------0-0-0------0-0-0-----------------||
D|-0-0-0------0-0-0------0-0-0------0-0-0-----------------||
   . .        . .        . .



E|-------------------------------------||
B|-------------------------------------||
G|-------------------------------------||
D|-0000000000000000-8-8888888888888888-||
A|-0000000000000000-8-8888888888888888-||
D|-0000000000000000-8-8888888888888888-||
   ................   ................

E|----------------------------------------------------------||
B|----------------------------------------------------------||
G|----------------------------------------------------------||
D|-10101010101010101010101010101010-77777777-8~-------------||
A|-10101010101010101010101010101010-77777777-8~-------------||
D|-10101010101010101010101010101010-77777777-8~-------------||
    ' ' ' ' ' ' ' ' ' ' ' ' ' ' ' '



E|---------------------------------------------------------------------------||
B|---------------------------------------------------------------------------||
G|----------101010----------101010-10101010-9-9-1010-12-12-12-12-12-12-12-12-||
D|-000-0000-8-8-8--000-0000-8-8-8--------------------------------------------|| 2X
A|-000-0000-8-8-8--000-0000-8-8-8--8-8-8-8--7-7-8-8--10-10-10-10-10-10-10-10-||
D|-000-0000--------000-0000--------------------------------------------------||
   ..  ....        ..  ....



E|---------------------------||
B|---------------------------||
G|---------------------------||
D|-000--0--000---00--000--0--||
A|-000--0--000---00--000--0--||
D|-000--0--000---00--000--0--||

Then play the pre-chorus
Then the chorus 4X




E|--------------------------------------------
B|--------------------------------------------
G|--------------------------------------------
D|-0~-0-3h5-0-1-000----10-000----10-888888-8--
A|-0~-0-3-3-0-1-000-7h8---000-7h8---888888-8--
D|-0~-0-3-3-0-1-000-------000-------888888-8--         
                ...       ...          ..


E|---------------------------------------------------
B|---------------------------------------------------
G|---------------------------------------------------
D|-3h5-0-1-000-5h7--000-5h7---------------3-5-0-1-0~--
A|-3-3-0-1-000----8-000-----8-555-55777-9-3-3-0-1-0~--
D|-3-3-0-1-000------000-------000-00000-0-3-3-0-1-0~--
                              ,,, ,,,,, ,

(this part of it is kinda the post chorus part)
E|--------------------------------------------------------------||
B|--------------------------------------------------------------||
G|--------------------------------------------------------------||
D|-~0~--8~s10101010101010101010101010101010101010101010101010-||
A|-~0~--8~s10101010101010101010101010101010101010101010101010-||
D|-~0~--8~s10101010101010101010101010101010101010101010101010-||

play chorus 4X 

then theres the ending
E|----------------------------
B|----------------------------
G|----------------------------
D|-0~----8~----10~----7~--8~--
A|-0~----8~----10~----7~--8~--
D|-0~----8~----10~----7~--8~--


E|------------8--------------8----------8----------------8------------||
B|---6-5-6-5-6--6-5-6-5-6-5-6--6-5-6-5-6--6-5-6-5-6-5---6--6-5-6-5----||
G|------5---5--5---5---5---5--5---5---5--5---5---5-----5--5---5-------||
D|--0-------------------------------------------------------------0~--||
A|----------------------------------------------------------------0~--||
D|-0--------------------------------------------------------------0~--||


Текст, аккорды и табулатура для песни "Dive Right In", исполняет "Story Of The Year".
Используемые в песне аккорды можно найти в разделе Как брать аккорды. Аккорды для шестиструнной гитары. Другие песни можно найти на нашем сайте, воспользовавшись алфавитным указателем вверху страницы.


 
Ошибка в тексте? Выделите ошибку и нажмите Ctrl+Enter