story of the year - burning years
transcribed by stephen saldivar  *ELITE*

E|------------------------------0--------0-----------------------------
b|----------------------------6--6-6------3----------------------------
G|--777-101010-999-5555555-----7--7---2--------------------------------
D|---------------------------7-------2--2------------------------------
A|--555—-8-8-8-777-3333333--5-------0--3-------------------------------
E|---------------------------------------------------------------------


e|---------------------------------------------------------------------
b|---------------------------------------------------------------------
G|-1010-1010—-57----7----1010-1010—-57----7------------------------
D|-1010-1010—-57-00-7-00-1010-1010—-57-00-7-00---------------------
A|--8-8--8-8—-35-00-5-00--8-8--8-8—-35-00-5-00---------------------
E|-----------------00---00-----------------00---00---------------------


e|---------------------------------------------------------------------
b|---------------------------------------------------------------------
G|1010-1010-9-1212121210910--------------------------------------------
D|1010-1010-9-1212121210910--------------------------------------------
A|-8-8--8-8-7-10101010-87-8--------------------------------------------
E|-8-8--8-8-7-10101010-87-8--------------------------------------------


e|---------------------------------------------------------------------
b|---------------------------------------------------------------------
G|-1010101010101010-55555555-77777777----------------------------------
D|--x-x-x-x-x-x-x-x-xxxxxxxx-xxxxxxxx----------------------------------
A|--8-8-8-8-8-8-8-8-33333333-55555555----------------------------------
E|---------------------------------------------------------------------


Текст, аккорды и табулатура для песни "Burning Years", исполняет "Story Of The Year".
Используемые в песне аккорды можно найти в разделе Как брать аккорды. Аккорды для шестиструнной гитары. Другие песни можно найти на нашем сайте, воспользовавшись алфавитным указателем вверху страницы.


 
Ошибка в тексте? Выделите ошибку и нажмите Ctrl+Enter